Song name
# A B C D E F G H I J K L M N O P Q R S T U V W X Y Z

A Silent Fiction - Promise Me Youll Never Die tab

Band: A Silent Fiction
Song: Promise Me You'll Never Die
Album: Wasted

Hilarious song! Love it!


----------1------------------1------------------1--------|
------3-----3---3--------3-----3---3--------3-----3---3--|
--------2-----2------------2-----2------------2-----2----|
---------------------------------------------------------|
--1------------------1------------------0----------------|
---------------------------------------------------------|

then there are little variations at the end of that...
just strum a Dminor if u CBF'd.

----------1------------------1------------------1--------|
------3-----3---3--------3-----3---3--------3-----3---3--|
--------2-----2------------2-----2------------2-----2----|
---------------------------------------------------------|
--1------------------1------------------0----------------|
---------------------------------------------------------|

----------1------------------1------------------1--------|
------3-----3---3--------3-----3---3--------3-----3---3--|
--------2-----2------------2-----2------------2-----2----|
---------------------------------------------------------|
--1------------------1------------------0----------------|
---------------------------------------------------------|

----------1------------------1------------------1--------|
------3-----3---3--------3-----3---3--------3-----3---3--|
--------2-----2------------2-----2------------2-----2----|
---------------------------------------------------------|
--1------------------1------------------0----------------|
---------------------------------------------------------|

....etc...

GUITAR TWO


e-----------------------------------------------------------|
B-----------------------------------------------------------|
G---------------------------------------------------14------|
D-12121212121212121414141414141414151515151515151515--------|
A-----------------------------------------------------------|
E-----------------------------------------------------------|
 ....................................................

palm muted ^

e-----------------------------------------------------------|
B-----------------------------------------------------------|
G---------------------------------------------------14------|
D-12121212121212121414141414141414151515151515151515--------|
A-----------------------------------------------------------|
E-----------------------------------------------------------|

then NOT palm muted =P

have fun,  play this song at EVERY performance you ever do.


http://www.myspace.com/asilentfiction
Tap to rate this tab
# A B C D E F G H I J K L M N O P Q R S T U V W X Y Z