Guitaretab - guitar tabs
Song name
# A B C D E F G H I J K L M N O P Q R S T U V W X Y Z

A Silent Film - Lamplight tab

www.asilentfilm.com

No guitar in the verses

Intro
e|-----------------------------------------------------------------|
B|-----------------------------------------------------------------|
G|-10-10-10-10-10-10/9--7-7-7-7-7-7-9b--------------9b--0000000000-|
D|--------------------------------------7-7-7-7-7-7----------------|
A|-----------------------------------------------------------------|
E|-----------------------------------------------------------------|

e|-----------------------------------------------------------------|
B|-----------------------------------------------------------------|
G|-10-10-10-10-10-10/9--7-7-7-7-7-7-9b--------------9b-------------|
D|--------------------------------------7-7-7-7-7-7----9999999999--|
A|-----------------------------------------------------------------|
E|-----------------------------------------------------------------|

Verse (REST)

Pre Chorus (timings a bit tricky)
e|----------------------------------------------------------|
B|----------------------------------------------------------|
G|-12~10-9-10~---9b-----9b--0~----12~10-9-10~---9b----9b----|
D|-------------------7~----------------------------7~----9~-|
A|----------------------------------------------------------|
E|----------------------------------------------------------|

Chorus
e|-----------------------------------------------------------------|
B|-----------------------------------------------------------------|
G|-10-10-10-10-10-10/9--7-7-7-7-7-7-9b--------------9b--0000000000-|
D|--------------------------------------7-7-7-7-7-7----------------|
A|-----------------------------------------------------------------|
E|-----------------------------------------------------------------|

e|-----------------------------------------------------------------|
B|-----------------------------------------------------------------|
G|-10-10-10-10-10-10/9--7-7-7-7-7-7-9b--------------9b-------------|
D|--------------------------------------7-7-7-7-7-7----9999999999--|
A|-----------------------------------------------------------------|
E|-----------------------------------------------------------------|

Verse (REST)

Pre Chorus (timings a bit tricky)
e|----------------------------------------------------------|
B|----------------------------------------------------------|
G|-12~10-9-10~---9b-----9b--0~----12~10-9-10~---9b----9b----|
D|-------------------7~----------------------------7~----9~-|
A|----------------------------------------------------------|
E|----------------------------------------------------------|
[ Tab from: http://www.guitaretab.com/a/a-silent-film/118274.html ]
Chorus 
e|-----------------------------------------------------------------|
B|-----------------------------------------------------------------|
G|-10-10-10-10-10-10/9--7-7-7-7-7-7-9b--------------9b--0000000000-|
D|--------------------------------------7-7-7-7-7-7----------------|
A|-----------------------------------------------------------------|
E|-----------------------------------------------------------------|

e|-----------------------------------------------------------------|
B|-----------------------------------------------------------------|
G|-10-10-10-10-10-10/9--7-7-7-7-7-7-9b--------------9b-------------|
D|--------------------------------------7-7-7-7-7-7----9999999999--|
A|-----------------------------------------------------------------|
E|-----------------------------------------------------------------|

e|-----------------------------------------------------------------|
B|-----------------------------------------------------------------|
G|-10-10-10-10-10-10/9--7-7-7-7-7-7-9b--------------9b--0000000000-|
D|--------------------------------------7-7-7-7-7-7----------------|
A|-----------------------------------------------------------------|
E|-----------------------------------------------------------------|

e|--------------------------------------------------------|
B|--------------------------------------------------------|
G|-10-10-10-10-10-10/9--7-7-7-7-7-7-9b--------------9b----|
D|--------------------------------------7-7-7-7-7-7----9~-|
A|--------------------------------------------------------|
E|--------------------------------------------------------|

Bridge (x4) (3.04-3.14) 
e|----------------|
B|----------------|
G|-5h777777777777-|
D|----------------|
A|----------------|
E|----------------|

Chorus 
e|-----------------------------------------------------------------|
B|-----------------------------------------------------------------|
G|-10-10-10-10-10-10/9--7-7-7-7-7-7-9b--------------9b--0000000000-|
D|--------------------------------------7-7-7-7-7-7----------------|
A|-----------------------------------------------------------------|
E|-----------------------------------------------------------------|

e|-----------------------------------------------------------------|
B|-----------------------------------------------------------------|
G|-10-10-10-10-10-10/9--7-7-7-7-7-7-9b--------------9b-------------|
D|--------------------------------------7-7-7-7-7-7----9999999999--|
A|-----------------------------------------------------------------|
E|-----------------------------------------------------------------|

e|---------------------------------------------------------|
B|---------------------------------------------------------|
G|-10-10-10-10-10-10/9--7-7-7-7-7-7-9b--------------9b--0~-|
D|--------------------------------------7-7-7-7-7-7--------|
A|---------------------------------------------------------|
E|---------------------------------------------------------|

Related for Lamplight tab