Song name
# A B C D E F G H I J K L M N O P Q R S T U V W X Y Z

A Silver Mt Zion - Blown-out Joy From Heavens Mercied Hole tab

Song: Blown-out Joy From Heaven's Mercied Hole
Artist: A Silver Mt. Zion
Album: He Has Left Us Alone but Shafts of Light Sometimes Grace the Corner of
Our Rooms…

     This tab is essentially just the theme that the guitar plays all
throughout the song and is tossed around in variation to the piano and
violin.
     The first bit is played repeatedly in the intro. However, during the
verse, the first and second parts alternate. All the palm muted notes are
slightly palm muted, just enough for a short sustain. 

Eb|-------------------------------------------|
Bb|-------------------------------------------|
Gb|-------------------------------------------|
Db|-0-----------------------------------------|
Ab|----0--1--8\-------------------------------|
Eb|-------------------------------------------|
   |_______|
Eb|-------------------------------------------|
Bb|-------------------------------------------|
Gb|-------------------------------------------|
Db|-0-----------------------------------------|
Ab|----0--1--3/-------------------------------|
Eb|-------------------------------------------|
   |________|

Legend:
|_| palm muted segments
\ slide down
/ slide up
Tap to rate this tab
 
# A B C D E F G H I J K L M N O P Q R S T U V W X Y Z