Song name
# A B C D E F G H I J K L M N O P Q R S T U V W X Y Z

A Silver Mt Zion - Sow Some Lonesome Corner So Many Flowers Bloom tab

Artist: A Silver Mt Zion
Album:  "this is our punk rock," thee rusted satellites gather + sing
Track:  sow some lonesome corner so many flowers bloom
Websites: http://tra-la-la-band.com/
          http://www.cstrecords.com/bands_silvermtzion.html
          http://www.brainwashed.com/godspeed/ 

Tabbed by: Ritchoo
Email:     ritcho@gmail.com 

Tuning: Standard



Main riff 
0:42

e|-------------------------------------------------------|
b|----------------5------------------------5-------------|
g|--------6----------------6-------6---------------------|
d|----4-------4----------------4-------4------------6----|
a|-------------------------------------------------------|
E|-------------------------------------------------------|


11:38

e|-------------------------------------------------------|
b|----------------5-----------------------5--------------|
g|--------6-----------------------6----------------------|
d|----4-------4-------6-------4-------4-------6----------|
a|------------------------7-----------------------7------|
E|-------------------------------------------------------|

Tap to rate this tab
# A B C D E F G H I J K L M N O P Q R S T U V W X Y Z