Song name
# A B C D E F G H I J K L M N O P Q R S T U V W X Y Z

A Skylit Drive - Ability To Create A War tab

----------------------------------------------------------------------------
	        Ability To Create A War - A Skylit Drive
----------------------------------------------------------------------------
Tabbed by:BrandonR
Email:brandonr116@hotmail.com

Tuning:Drop D

Very simple song. Hard to hear the rythem of the guitar some times.
But over all there are only two notes in the whole intro...

Synth comes in...

come in at :14-:21
e|---------------------------------------------------|
B|---------------------------------------------------|
G|---listen for rythem-------------3~-3~-------------|
D|---------------------------------3~-3~-------------|
A|-0000-00-0000-pause-0000-00-0000-1~-1~-------------|
D|-0000-00-0000-------0000-00-0000-------------------|

:21-:35
e|---------------------------------------------------|
B|---follow-base-drums-rythem------------------------|
G|---------------------------------3-3---3-3---------|
D|---------------------------------3-3---3-3--x2-----|
A|-0000-0-0-00000-pause--00000-0-0-1-1-0-1-1---------|
D|-0000-0-0-00000-pause--00000-0-0-----0-------------|

:36-:49
e|---------------------------------------------------|
B|---------------------------------------------------|
G|----listen to rythem------------3-3---3-3----------|
D|--------------------------------3-3---3-3--x2------|
A|-0-0-00000-0-0-000-0-0-00000--0-1-1-0-1-1----------|
D|-0-0-00000-0-0-000-0-0-00000--0-----0--------------|

e|---------------------------------------------------|
B|-follow-double-base-rythem-------------------------|
G|----------------------------------3-3---3-3--------|
D|----------------------------------3-3---3-3--------|
A|-0000-0-0-00000-"SAVE!"-00000-0-0-1-1-0-1-1--------|
D|-0000-0-0-00000---------00000-0-0-----0------------|

e|---------------------------------------------------|
B|-follow-double-base-rythem-------------------------|
G|--------------------------------3-3---3-3----------|
D|--------------------------------3-3---3-3-0~-------|
A|-0000-0-0-00000-"ME!"-00000-0-0-1-1-0-1-1-0~-------|
D|-0000-0-0-00000-------00000-0-0-----0-----0~-------|


Tap to rate this tab
# A B C D E F G H I J K L M N O P Q R S T U V W X Y Z