Guitaretab - guitar tabs
Song name
# A B C D E F G H I J K L M N O P Q R S T U V W X Y Z

A Skylit Drive - Im Not A Thief Im A Treasure Hunter tab

-------------------------------------------------------------------------------
		I'm Not A Thief, I'm A Treasure Hunter - A Skylit Drive
-------------------------------------------------------------------------------
Artist: A Skylit Drive
Song Title: I'm Not A Thief, I'm A Treasure Hunter
Album: Wires And The Concept Of Breathing
Appeared on Tragic Hero Records 2008

Oh yeah, my first tab.
It's missing some parts but this tab is like just for the "first layer" of sound.
Help me find out the rest :D. 
Leave some comments and tips for improvement of this tab.
Thank you all very much and have a great day.

-VVO

Tuning: Drop D (e, B, G, D, A, D)

INTRO:

(Both Guitars)
|---------------------------------------------------------------|
|------------(let ring)------------------------------(let ring)-|
|--------11--------------------------------------12-------------|
|-0-2/3--11---------10~ -------------0-0--0-2/3--12-------------|
|-0-2/3--9----------10~ -------------0-0--0-2/3--10-------------|
|-0-2/3-------------10~ -0-0-0-0-0-0-0-0--0-2/3-----------------|
PM                       * * * * * *

VERSE:

(Guitar One):
|--------------------------------------------------------------|
|-------/8-0-8-0-8-0-3-0----/-12-/-15-12-----------------------|
|--------------------------------------------------------------|
|--------------------------------------------------------------|
|--------------------------------------------------------------|
|--------------------------------------------------------------|

(Guitar Two):
|---------------------------------------------------------------|
|---------------------------------------------------------------|
|---------------------------------------------------------------|
|-----4-4-2~ ------------4-4-4-2~ -----3-3-2~-------------------|
|-----4-4-2~ ------------4-4-4-2~ -----3-3-2~-------------------|
|-----4-4-2~ ------------4-4-4-2~ -----3-3-2~-------------------|
PM    * *                * * *         * *             

END OF VERSE:

(Both Guitars)
|--------------------------------------------------------------|
|--------------------------------------------------------------|
|--------------------------------------------------------------|
|-2~----2-2/-------------------------------2-2---2-2~~---------|
|-2~----2-2/-------------------------------2-2---2-2~~---------|
|-2~----2-2/ slide up then come back to ---2-2---2-2~~---------|

Then repeat everything from the Intro until the End of the verse.
After that:

CHORUS:

(Both Guitars)
|--------------------------------------------------------------|
|----------------------------------------------(2x)------------|
|--------------------------------------------------------------|
|-22222222-55555555-1010101010101010-(10's 2x)-----------------|
|-22222222-55555555-1010101010101010---------------------------|
|-22222222-55555555-1010101010101010---------------------------|
[ Tab from: http://www.guitaretab.com/a/a-skylit-drive/116253.html ]
after second time end with:
|--------------------------------------------------------------|
|--------------------------------------------------------------|
|------(breathe easy, the...)----------------------------------|
|-2-2----------------------------------------------------------|
|-2-2----------------------------------------------------------|
|-2-2----------------------------------------------------------|

"REWIND":
(Both Guitars)
|---------------------------------------------------------------|
|------------(let ring)------------------------------(let ring)-|
|--------11--------------------------------------12-------------|
|-0-2/3--11---------10~ -------------0-0--0-2/3--12-------------|
|-0-2/3--9----------10~ -------------0-0--0-2/3--10-------------|
|-0-2/3-------------10~ -0-0-0-0-0-0-0-0--0-2/3-----------------|
PM                       * * * * * *

THEN (not really sure about this part):

(Both Guitars)
|--------------------------------------------------------------|
|--------------------------------------------------------------|
|--------------------------------------------------------------|
|--/10-10-11--0------------------12-14-15----------------------|
|--/12-12-13--0------------------14-16-17----------------------|
|-------------0-0-0-0-0-0-0-0-0--------------------------------|
                * * * * * * * *
|---------------------------------------------------------------|
|---------------------------------------------------------------|
|---------------------------------------------------------------|
|------------------12-14-15----10~ 7~ --------------------------|
|------------------14-16-17----10~ 7~ --------------------------|
|-0-0-0-0-0-0-0-0--------------10~ 7~ --------------------------|
  * * * * * * * *
|--------------------------------------------------------------|
|--------------------------------------------------------------|
|-----------------------9------------------------------9-------|
|-----------------------9-0-0--------------------------9-0-0-0-|
|-----------------------7-0-0--------------------------7-0-0-0-|
|-0-0--0-0-0-0-0-0-0-0----0-0--0-0-0--0-0-0-0-0-0-0-0----0-0-0-|
  * *  * * * * * * * *    * *  * * *  * * * * * * * *    * * * 

Synth/ Keyboard fill then:

Repeat CHORUS two times:

OUTRO:

(Guitar Two) (Repeats chorus two times again):
|--------------------------------------------------------------|
|----------------------------------------------(2x)------------|
|--------------------------------------------------------------|
|-22222222-55555555-1010101010101010-(10's 2x)-----------------|
|-22222222-55555555-1010101010101010---------------------------|
|-22222222-55555555-1010101010101010---------------------------|

(Guitar One):
|--------------after 2nd time start tapping------19~-----------|
|--21~ let ring---19-21-19-21-19-21-19-------------------------|
|--------------------------------------------------------------|
|--------------------------------------------------------------|
|--------------------------------------------------------------|
|--------------------------------------------------------------|

Guitar Two Ends With:             | Guitar One Ends With:
|----------------------|----------------------------------------|
|----------------------|--------------19~ ----------------------|
|--2~ -----------------|----------------------------------------|
|--2~ -----------------|----------------------------------------|
|--2~ -----------------|----------------------------------------|
Related for Im Not A Thief Im A Treasure Hunter tab