Guitaretab - guitar tabs
Song name
# A B C D E F G H I J K L M N O P Q R S T U V W X Y Z

A Skylit Drive - This Isnt The End tab

Tuning - Drop D

Intro-
|----------------------------------------|
|----------------------------------------|
|-9-9-9-9-9-9-9-9-9-9-9-9-9-9-9-9--------|
|-x-x-x-x-x-x-x-x-x-x-x-x-x-x-x-x--------|
|-7-7-7-7-7-7-7-7-7-7-7-7-7-7-7-7--------|
|----------------------------------------|

Verse-
GtrI
|--------------------------------------------------------------|  |-----|
|--------------------------------------------------------------|  |-----|
|-4-4-4-4-4-4-4444-5-5-5-5-5-5-5-5555-4-4-4-4-4-4-4444-5-5-5-5-|  |-777-|
|-2-2-2-2-2-2-2222-5-5-5-5-5-5-5-5555-2-2-2-2-2-2-2222-5-5-5-5-|  |-777-|
|-2-2-2-2-2-2-2222-3-3-3-3-3-3-3-3333-2-2-2-2-2-2-2222-3-3-3-3-|  |-555-|
|-2-2-2-2-2-2-2222--------------------2-2-2-2-2-2-2222---------|  |-----|


GtrII(I'm not sure but it's tapped)  
|------------------------------------------------------------|
|-8------12----8---7----8------8-------12-----8---7----8-----|
|----9-------9---------------------9-------9-----------------|
|---9--9---------9----9-----------9--9---------9----9--------|2x
|------------------------------------------------------------|
|------------------------------------------------------------|

|-------------------------------------------------------| 
|-------------------------------------------------------|
|-4-4-4-4-4-4-4444-5-5-5-5-5-5-5-5555-4-4-4-4-4-4-4444--|
|-2-2-2-2-2-2-2222-5-5-5-5-5-5-5-5555-2-2-2-2-2-2-2222--|
|-2-2-2-2-2-2-2222-3-3-3-3-3-3-3-3333-2-2-2-2-2-2-2222--|
|-2-2-2-2-2-2-2222--------------------2-2-2-2-2-2-2222--|


GtrII   
|------------------------------------------------------------|
|-8------12----8---7----8------8-------13-----8---7----8-----|
|----9-------9---------------------9-------9-----------------|
|---9--9---------9----9-----------9--9---------9----9--------|2x
|------------------------------------------------------------|
|------------------------------------------------------------|

GtrI
|----------------------------------------|
|----------------------------------------|
|-5-5-5-7-7-7-12-12-12-7-7-7-9-9-9-9-----|
|----------------------------------------|
|-3-3-3-5-5-5-10-10-10-5-5-5-7-7-7-7-----|
|----------------------------------------|

GtrII
|----------------------------------------|
|----------------------------------------|
|-12~------------------------------------|
|-10~------------------------------------|
|-10~------------------------------------|
|-10~------------------------------------|

Chorus
GtrI
|------------------------------------------------------------|
|------------------------------------------------------------|
|-4-4-4-4--5555-7777-44-44---4-4-4-4--5555-7777-4444---------|
|-2-2-2-2--5555-5555-44-44---2-2-2-2--5555-5555-4444---2~----|
|-2-2-2-2--3333-5555-22-22---2-2-2-2--3333-5555-2222---2~----|
|-2-2-2-2-------5555---------2-2-2-2-------5555--------2~----|


GtrII
|------------------------------------------------------------------------------|
|------------------------------------------------------------------------------|
|-9-9-9-9--12121212--12121212-1111-1111--9-9-9-9--12121212--12121212-1111-1111-|
|-x-x-x-x--10101010--x-x-x-x--9-9--9-9---x-x-x-x--10101010--x-x-x-x--9-9--9-9-|
|-7-7-7-7--10101010--10101010-9-9--9-9---7-7-7-7--10101010--10101010-9-9--9-9--|
|----------10101010-----------9-9--9-9------------10101010-----------9-9--9-9--|

|----------------------------------------|
|----------------------------------------|
|-9-9-9-9-9-9-9-9-9-9-9-9-9-9-9-9--------|
|-x-x-x-x-x-x-x-x-x-x-x-x-x-x-x-x--------|
|-7-7-7-7-7-7-7-7-7-7-7-7-7-7-7-7--------|
|----------------------------------------|

Do verse-
Chorus2
GtrI
|----------------------------------------------------------|
|----------------------------------------------------------|
|-4-4-4-4--5555-7777-44-44---4-4-4-4--5555-7777-4444-------|
|-2-2-2-2--5555-5555-44-44---2-2-2-2--5555-5555-4444-------|2x
|-2-2-2-2--3333-5555-22-22---2-2-2-2--3333-5555-2222-------|
|-2-2-2-2-------5555---------2-2-2-2-------5555------------|

[ Tab from: http://www.guitaretab.com/a/a-skylit-drive/178086.html ]
GtrII
|------------------------------------------------------------------------------|
|------------------------------------------------------------------------------|
|-9-9-9-9--12121212--12121212-1111-1111--9-9-9-9--12121212--12121212-1111-1111-|
|-x-x-x-x--10101010--x-x-x-x--9-9--9-9---x-x-x-x--10101010--x-x-x-x--9-9--9-9-|2x
|-7-7-7-7--10101010--10101010-9-9--9-9---7-7-7-7--10101010--10101010-9-9--9-9--|
|----------10101010-----------9-9--9-9------------10101010-----------9-9--9-9--|

Bridge-
1.
GtrII   
|-------------------------------------------------------------------|
|-------------------------------------------------------------------|
|-12121212121212-1111111111111111-12121212121212-1111111111111111---|
|-------------------------------------------------------------------|
|-10101010101010-9-9-9-9-9-9-9-9--10101010101010-9-9-9-9-9-9-9-9----|
|-------------------------------------------------------------------|

|---------------------------------------------------|
|---------------------------------------------------|
|-12121212121212-1111111111111111-12121212121212-11-|
|---------------------------------------------------|
|-10101010101010-9-9-9-9-9-9-9-9--10101010101010-9--|
|---------------------------------------------------|

2.
GtrI
|------------------------------------------------------------------|
|------------------------------------------------------------------|
|-------111111-5-44--4-4-4--444---------111111-5-44--------444-----|
|-2-0-2-x-x-x--x-xx--2-0-2--222---2-0-2-x-x-x--x-xx--------202-----|
|-2-0-2-9-9-9--3-22--2-0-2--222---2-0-2-9-9-9--3-22-00000--202-----|
|-2-0-2--------------2-0-2--222---2-0-2-------------00000--202-----|
                                                    *****

|-------------------------------------------------------------|
|-------------------------------------------------------------|
|-------111111-5-44--4-4-4--444---------111111-5-44--4-4-4----|
|-2-0-2-x-x-x--x-xx--2-0-2--222---2-0-2-x-x-x--x-xx--2-0-2----|
|-2-0-2-9-9-9--3-22--2-0-2--222---2-0-2-9-9-9--3-22--2-0-2----|
|-2-0-2--------------2-0-2--222---2-0-2--------------2-0-2----|

GtrII
|------------------------------------------------------------------|
|------------------------------------------------------------------|
|-------111111--------------------------111111---------------------|
|-2-0-2-x-x-x-10-77--2-0-2--222---2-0-2-x-x-x-10-77--------202-----|
|-2-0-2-9-9-9-10-77--2-0-2--222---2-0-2-9-9-9-10-77-00000--202-----|
|-2-0-2-------10-77--2-0-2--222---2-0-2-------10-77-00000--202-----|
                                                    *****

|-------------------------------------------------------------|
|-------------------------------------------------------------|
|-------111111--------------------------111111----------------|
|-2-0-2-x-x-x-10-77--2-0-2--222---2-0-2-x-x-x--10-77-2-0-2----|
|-2-0-2-9-9-9-10-77--2-0-2--222---2-0-2-9-9-9--10-77-2-0-2----|
|-2-0-2-------10-77--2-0-2--222---2-0-2--------10-77-2-0-2----|

3.
GtrI
|----------------------------------|
|----------------------------------|
|-111111-7-7-7-111111-7-7-7-7/9-99-|
|----------------------------------|
|-9-9-9--5-5-5-9-9-9--5-5-5-5/7-77-|
|----------------------------------|
 
GtrII
|----------------------------------------|
|----------------------------------------|
|-161616-121212-161616-101010-11/12-1212-|
|----------------------------------------|
|-141414-101010-141414-101010--9/10-1010-|
|----------------------------------------|         


Chorus-

    end with    
|----------------------------------------|
|----------------------------------------|
|-4~-----4~-------4~-------4~------4~----|
|-2~-----2~-------2~-------2~------2~----|
|-2~-----2~-------2~-------2~------2~----|
|-2~-----2~-------2~-------2~------2~----| 
        
                              
GtrII harmonic
|--7+-------------7+---------------------|
|---------7+-----------------7+----------|
|-------5+--------------5+----------11~--|
|----------------------------------------|
|-----------------------------------9~---|
|----------------------------------------|
Related for This Isnt The End tab