Song name
# A B C D E F G H I J K L M N O P Q R S T U V W X Y Z

A Skylit Drive - Those Cannons Could Sink A Ship tab

Rhythm Guitar 

Intro (0:00-0:12)

E|----------------------------------------------------|
B|----------------------------------------------------|
G|----------------------------------------------------|
D|-1-3-3-3-3-3-----6-6-6-6-6-6-6-6-----1-1-1-1-1-1-1--|(x2)
A|-1-3-3-3-3-3-----6-6-6-6-6-6-6-6-----1-1-1-1-1-1-1--|  
D|-1-3-3-3-3-3-----6-6-6-6-6-6-6-6-----1-1-1-1-1-1-1--|



Chorus (1:08-1:31)

E|------------------------------------|
B|------------------------------------|
G|------------------------------------| (x2)
D|-3-3-3-3----6-6-6-6----1-1-1-1-1-1--|
A|-3-3-3-3----6-6-6-6----1-1-1-1-1-1--|
D|-3-3-3-3----6-6-6-6----1-1-1-1-1-1--|

Tap to rate this tab
# A B C D E F G H I J K L M N O P Q R S T U V W X Y Z