Guitaretab - guitar tabs
Song name
# A B C D E F G H I J K L M N O P Q R S T U V W X Y Z

A Skylit Drive - Hey Nightmare Where Did You Get Them Teeth tab

Tuning: Drop D

Intro:

"RUN"

(both guitars)
e|-------------------------------------------------------------------------|
B|-------------------------------------------------------------------------|
G|-----------------------7-7-7-7-7-7-7-7---7-7-7-7-7-7-7-7-----------------|
D|---2222222222222-------7-7-7-7-7-7-7-7-0-7-7-7-7-7-7-7-7-----------------|
A|---2222222222222-------5-5-5-5-5-5-5-5-0-5-5-5-5-5-5-5-5-----------------|
D|---2222222222222-----------------------0---------------------------------|
                 .
(both guitars)
e|-------------------------------------------------------------------------|
B|-------------------------------------------------------------------------|
G|------55----55---------------------5----------55----55-------------------|
D|---00-55-00-55-00-00~---4000-400---5-x16---00-55-00-55-00-00~---4000-400-|
A|---00-33-00-33-00-00~---4000-400---3-------00-33-00-33-00-00~---4000-400-|
D|---00----00----00-00~---4000-400-----------00----00----00-00~---4000-400-|

(both guitars)
e|-------------------------------------------------------------------------|
B|------------------------------------------------------------------x2-----|
G|-------------7-------5-----5-5-5-4-4-444---------------------------------|
D|-------------7-x16---5-x8--5-5-5-5-5-555---------------------------------|
A|-------------5-------3-----3-3-3-2-2-222---------------------------------|
D|-------------------------------------------------------------------------|


Chorus:(x2)
                                                       
"Cut through the limbs..."

(both guitars)
e|-------------------------------------------------------------------------|
B|-------------------------------------------------------------------------|
G|-55---1414---77---1212---77---1111---77--12-12---------------------------|
D|-xx---x-x----xx---x-x----xx---x-x----xx--x--x----------------------------|
A|-33---1212---55---1010---55---9-9----55--10-10---------------------------|
D|-------------------------------------------------------------------------|
                                                                            
(guitar 1) 1st time only, 2nd time:rest                                     
e|-------------------------------------------------------------------------|
B|--0-7-0-8-0-7-0-10-0-8-0-7h8p7------7-0-8-0-7-0-10-0-8-0-7h8-------------|
G|-------------------------------7-----------------------------------------|
D|-------------------------------------------------------------------------|
A|-------------------------------------------------------------------------|
D|-------------------------------------------------------------------------|
                                                                            
(guitar 2) 1st time only, 2nd time:rest                                     
e|-------------------------------------------------------------------------|
B|-------------------------------------------------------------------------|
G|-------------------------------------------------------------------------|
D|-2-2-2-2-2-2-2-2-2-2-2-2-2-2-2-2----22-2-2-2-2-2-2-2-2-2-2-2-2-2-2-2-----|
A|-2-2-2-2-2-2-2-2-2-2-2-2-2-2-2-2----22-2-2-2-2-2-2-2-2-2-2-2-2-2-2-2-----|
D|-2-2-2-2-2-2-2-2-2-2-2-2-2-2-2-2----22-2-2-2-2-2-2-2-2-2-2-2-2-2-2-2-----|
   . . . . . . . . . . . . . . .      .. . . . . . . . . . . . . . . .      

(both guitars)
e|-------------------------------------------------------------------------|
B|-------------------------------------------------------------------------|
G|-------------------------------------------------------------------------|
D|-----22-----------------------------------22-----------------------------|
A|-----22-----------------------------------22-----------------------------|
D|-----22-----------------------------------22-----------------------------|
       ..                                   ..

middle verse:

"She, watching the sky burn..."

(both guitars)
e|-------------------------------------------------------------------------|
B|-------------------------------------------------------------------------|
G|----5~-------------------------------------------------------------------|
D|----5~-------------------------------------------------------------------|
A|----3~-------------------------------------------------------------------|
D|-------------------------------------------------------------------------|

(both guitars)
e|-------------------------------------------------------------------------|
B|---------------------------------------------------------------x4--------|
G|-------12--11--7--9~--12~-----5-5---5-5--4~------------------------------|
D|-------x---x---x--x---x-------x-x-2-x-x--x-------------------------------|
A|-------10\-9-\-5-/7~--10~-----3-3-2-3-3--2~------------------------------|
D|----------------------------------2--------------------------------------|
                                    .      x<--on 4th time

"Forgive me!"
e|-------------------------------------------------------------------------|
B|-------------------------------------------------------------------------|
G|--------------------7------5------5-5-5-4-4-444--------------------------|
D|-------------2------7-x8---5-x8---x-x-x-x-x-xxx--------------------------|
A|-------------2-x8---5------3------3-3-3-2-2-222--------------------------|
D|-------------2-----------------------------------------------------------|

Chorus:(x2)
                                                       
"Cut through the limbs..."
(both guitars)
e|-------------------------------------------------------------------------|
B|-------------------------------------------------------------------------|
G|-55---1414---77---1212---77---1111---77--12-12---------------------------|
D|-xx---x-x----xx---x-x----xx---x-x----xx--x--x----------------------------|
A|-33---1212---55---1010---55---9-9----55--10-10---------------------------|
D|-------------------------------------------------------------------------|
                                                                            
(guitar 1) 1st time only, 2nd time:rest                                     
e|-------------------------------------------------------------------------|
B|--0-7-0-8-0-7-0-10-0-8-0-7h8p7------7-0-8-0-7-0-10-0-8-0-7h8p7-----------|
G|-------------------------------7-----------------------------------------|
D|-------------------------------------------------------------------------|
A|-------------------------------------------------------------------------|
D|-------------------------------------------------------------------------|
                                                                            
(guitar 2) 1st time only, 2nd time:rest                                     
e|-------------------------------------------------------------------------|
B|-------------------------------------------------------------------------|
G|-------------------------------------------------------------------------|
D|-2-2-2-2-2-2-2-2-2-2-2-2-2-2-2-2----22-2-2-2-2-2-2-2-2-2-2-2-2-2-2-2-----|
A|-2-2-2-2-2-2-2-2-2-2-2-2-2-2-2-2----22-2-2-2-2-2-2-2-2-2-2-2-2-2-2-2-----|
D|-2-2-2-2-2-2-2-2-2-2-2-2-2-2-2-2----22-2-2-2-2-2-2-2-2-2-2-2-2-2-2-2-----|
   . . . . . . . . . . . . . . .      .. . . . . . . . . . . . . . . .      

[ Tab from: http://www.guitaretab.com/a/a-skylit-drive/90415.html ]
Pre-"Sick part":

"What's Left For you..."

(guitar 1)
e|-------------------------------------------------------------------------|
B|-------------------------------------------------------------------------|
G|---------5-5-5---------5-5-5---------------------------------------------|
D|-22--2-2-5-5-5-22--2-2-5-5-5--x2-----------------------------------------|
A|-22--2-2-3-3-3-22--2-2-3-3-3---------------------------------------------|
D|-22--2-2-------22--2-2---------------------------------------------------|
    .             .

(guitar 2)                          
e|-------------------------------------------------------------------------|
B|-------------------------------------------------------------------------|
G|---------5-5-5---------5-5-5-------4-------------------------------------|
D|-22--2-2-5-5-5-22--2-2-5-5-5--x1---x-x32-softly-over-2nd-time------------|
A|-22--2-2-3-3-3-22--2-2-3-3-3-------2-------------------------------------|
D|-22--2-2-------22--2-2---------------------------------------------------|
    .             .
(both Guitars)
e|-------------------------------------------------------------------------|
B|-------------------------------------------------------------x2----------|
G|-----------------------------------------------555---555-----------------|
D|-----------------------------------------------555---555-----------------|
A|----222-222-222-222-222-2-2----222-222-222-222-333-2-333-2---------------|
D|----222-222-222-222-222-2-2----222-222-222-222-----2-----2---------------|
      ... ... ... ... ... . .    ... ... ... ...     .     .

Sick part A, the vows:

"Your life is my well being..."

(guitar1)
e|-12-----15-14--15p14------15-----15p14-------15-17-15--------------------|
B|--------------------15/17----17--------15/17-----------------------------|
G|-------------------------------------------------------------------------|
D|-------------------------------------------------------------------------|
A|-------------------------------------------------------------------------|
D|-------------------------------------------------------------------------|
                                                                          x2
(guitar 2)soft                                                              
e|-------------------------------------------------------------------------|
B|-------------------------------------------------------------------------|
G|--------5~-----5~----------------7~--------------------------------------|
D|-2~-----5~-----5~----------------7~--------------------------------------|
A|-2~-----3~-----3~----------------5~--------------------------------------|
D|-2~----------------------------------------------------------------------|

(guitar 1)
e|--12-x32--15-x32--14-x32--10x32-----15\2---------------------------------|
B|-------------------------------------------------------------------------|
G|-------------------------------------------------------------------------|
D|-------------------------------------------------------------------------|
A|-------------------------------------------------------------------------|
D|-------------------------------------------------------------------------|

(guitar 2)
e|-------------------------------------------------------------------------|
B|-------------------------------------------------------------------------|
G|-------------------------------------------------------------------------|
D|---2------4-------5------7----------22-2---------------------------------|
A|---2-x16--5--x16--5-x16--7-x16------22-2---------------------------------|
D|---2------4-------5------7----------22-2---------------------------------|
                                      .. .

Sick Part B, the epic:

"for God's sake please..."

(guitar 1)
e|-------------------------------------------------------------------------|
B|-------------------------------------------------------------------------|
G|---------5-------4-------------------------------------------------------|
D|-2-------5-x16---5-x16---4-x16-------------------------------------------|
A|-2-x16---3-------5-------5-----------------------------------------------|
D|-2---------------5-------4-----------------------------------------------|
(guitar 2)                                                                x3
e|-------------------------------------------------------------------------|
B|-------------------------------------------------------------------------|
G|---------5-----4--4--4--4--4----4--4--4----------------------------------|
D|-2-------5-x16--55-55-55-55-555--55-55-5---55554444----------------------|
A|-2-x16---3---------------------------------xxxxxxxx----------------------|
D|-2-----------------------------------------55554444----------------------|

Cooldown:



(guitar 1)
e|-------------------------------------------------------------------------|
B|-------------------------------------------------------------------------|
G|------------4--4--4--4--4---4-------7--6---------------------------------|
D|------2-5~---55-55-55-55----4-------5--4-----2~--------------------------|
A|----3-----------------------2-------5--4-----2~--------------------------|
D|------------------------------------5--4-----2~--------------------------|

(guiter 2)
e|-------------------------------------------------------------------------|
B|-------------------------------------------------------------------------|
G|----5~-----4~------------------------------------------------------------|
D|-2~-5~-----4~------------------------------------------------------------|
A|-2~-3~-----2~--------------------------------2~--------------------------|
D|-2~---------------------------------5--4-----2~--------------------------|


| /  slide up
| \  slide down
| h  hammer-on
| p  pull-off
| ~  vibrato
| +  harmonic
| x  Mute note
============================================================================

Lyrics:

Run, for your life now
Donít you see your princess is gone?
Pull your vengeance aside
Letís make it rain blood tonight

Collide your sword with mine, Iíll send your soul
To the hell where it came from
By this I know youíll never set your eyes
On a quest you canít survive
Itís no surprise your head hangs from my heads 
Your mouth canít sin or lie

Cut through the limbs 
Stab through the enemies eyes
Any last man will die
[x2]

She, watching the sky burn oh how it burns
Run for the skylines, run for the skylines darling
Follow the light of the moon just to stay alive

Forgive me
For tomorrow
If Iím late
Iíve died before I wake

Cut through the limbs 
Stab through the enemies eyes
Any last man will die
[x2]

Whatís left for you
You, you wanted life
I showed you love
Conserve protect your life
Conserve your life
Conserve protect your life
Conserve your life

Your life is my well being
And if it lay in shadows then so be it
But left it be known that this soldier will not rest a day
Until he lays in the glamour and the grace of his bride
I will not rest one day until my victims blood is shed 
Up and down the shorelines
Up and down the shorelines

For gods sake please
Donít you forgive me
I will wait for you
[x2]

Race the sun
Pray for nothing warm
============================================================================



good luck...
Related for Hey Nightmare Where Did You Get Them Teeth tab