Guitaretab - guitar tabs
Song name
# A B C D E F G H I J K L M N O P Q R S T U V W X Y Z

A Small Victory - Thier Lovers Fall tab

Band: A Small Victory
Song: Their Lovers Fall
Album: The Pieces We Keep
Tuning: Standard EADGBE
Tab by: Andy
This tab is my own work. It is really close like 90%

Guitar 1 Intro
------------------------------------------------|
------------------------------------------------|
-12--------------------12-----------------------|  4xs
----10-9-10-12-10-9/10----10-9-10-12-10-9/10----|
------------------------------------------------|

Guitar 2 Intro
--------------------------------------------------|
--------------------------------------------------|
-5-5--5-5-5--5-5--5-5-5--5-5--5-5-5--5-5--5-5-5---|
-5-5--5-5-5--5-5--5-5-5--5-5--5-5-5--5-5--5-5-5---|
-3-3--3-3-3--3-3--3-3-3--3-3--3-3-3--3-3--3-3-3---|
--------------------------------------------------|
                                                       2xs
--------------------------------------------------|
--------------------------------------------------|
--------------------------------------------------|
-3-3--3-3-3--3-3--3-3-3--3-3--3-3-3--3-3--3-3-3---|
-3-3--3-3-3--3-3--3-3-3--3-3--3-3-3--3-3--3-3-3---|
-1-1--1-1-1--1-1--1-1-1--1-1--1-1-1--1-1--1-1-1---|

End on
-------|
-5-----|
-5-----|
-5-----|
-3-----|
-------|

--------------------------------------------------|
--------------------------------------------------|
-5-5--9-9-9-9-9-9-9-9--5-----7-7-7-7-7-7-7-7--5---|
-5-5--x-x-x-x-x-x-x-x--5-5-5-x-x-x-x-x-x-x-x--5---|
-3-3--7-7-7-7-7-7-7-7--3-5-5-5-5-5-5-5-5-5-5--3---|
-------------------------3-3----------------------|

--------------------------------------------------|
--------------------------------------------------|
-5-5--9-9-9-9-9-9-9-9--5-----7-7-7-7-7-7-7-7--5---|
-5-5--x-x-x-x-x-x-x-x--5-5-5-x-x-x-x-x-x-x-x--5---|
-3-3--7-7-7-7-7-7-7-7--3-5-5-5-5-5-5-5-5-5-5--3---|
-------------------------3-3----------------------|

-------------------------------------------|
-------------------------------------------|
-------------------------------------------|
-------------------5-----------------------|
-3-3-3-3-3-3-3-3-3-3-5-5-5-5-5-5-5-5-5-5---|
-1-1-1-1-1-1-1-1-1---3-3-3-3-3-3-3-3-3-3---|
   Pm.............     Pm...............

Guitar 1
-----------------------------------|
-----------------------------------|
-5-5-5-5-5-5-5-5-5-5-5-5-5-5-5-5---|
-5-5-5-5-5-5-5-5-5-5-5-5-5-5-5-5---|
-3-3-3-3-3-3-3-3-3-3-3-3-3-3-3-3---|
-----------------------------------|

Guitar 2
---------------------------------------|
---------------------------------------|
-12-12---12-12-------------------------|
--------------------9/12-9/10/9/10-----|
----------------------------------10---|
---------------------------------------|
 vvvbvb
-------------------------------------------|
-------------------------------------------|
-------------------------------------------|
-------------------5-----------------------|
-3-3-3-3-3-3-3-3-3-3-5-5-5-5-5-5-5-5-5-5---|
-1-1-1-1-1-1-1-1-1---3-3-3-3-3-3-3-3-3-3---|
   Pm.............     Pm...............

Guitar 1
-----------------------------------|
-----------------------------------|
-5-5-5-5-5-5-5-5-5-5-5-5-5-5-5-5---|
-5-5-5-5-5-5-5-5-5-5-5-5-5-5-5-5---|
-3-3-3-3-3-3-3-3-3-3-3-3-3-3-3-3---|
-----------------------------------|

Guitar 2
---------------------------------------|
---------------------------------------|
-12-12---12-12-------------------------|
--------------------9/12-9/10/9/10-----|
----------------------------------10---|
---------------------------------------|

Both Guitars
-------------------------------------------|
-------------------------------------------|
-------------------------------------------|
-3-3-3-3-3-3-3-3-3-3-5-5-5-5-5-5-5-5-5-5---|
-3-3-3-3-3-3-3-3-3-3-5-5-5-5-5-5-5-5-5-5---|
-1-1-1-1-1-1-1-1-1-1-3-3-3-3-3-3-3-3-3-3---|

Guitar 1
-------------------------------------------------------------------|
-------------------------------------------------------------------|
-5-5-5-5-5-5-5-5-5-5-5-5-5-5-5-5-----------------------------------|
-5-5-5-5-5-5-5-5-5-5-5-5-5-5-5-5-5-5-5-5-5-5-5-5-5-5-5-5-5-5-5-5---|
-3-3-3-3-3-3-3-3-3-3-3-3-3-3-3-3-5-5-5-5-5-5-5-5-5-5-5-5-5-5-5-5---|
---------------------------------3-3-3-3-3-3-3-3-3-3-3-3-3-3-3-3---|

Guitar 2
--------------------------------------------------|
--------------------------------------------------|
-7/9-0-9---10-9-0----10-9-0----10-9-0---10-9-0----|
---------10-------10--------10--------10----------|
--------------------------------------------------|
--------------------------------------------------|

Both Guitars

--------------------------------------------------|
--------------------------------------------------|
-5-5--9-9-9-9-9-9-9-9--5-----7-7-7-7-7-7-7-7--5---|
-5-5--x-x-x-x-x-x-x-x--5-5-5-x-x-x-x-x-x-x-x--5---|
-3-3--7-7-7-7-7-7-7-7--3-5-5-5-5-5-5-5-5-5-5--3---|
-------------------------3-3----------------------|

-----------------------------------------------|
-----------------------------------------------|
-5-5--9-9-9-9-9-9-9-9--5-----7-7-7-7-7-7-7-7---|
-5-5--x-x-x-x-x-x-x-x--5-5-5-x-x-x-x-x-x-x-x---|
-3-3--7-7-7-7-7-7-7-7--3-5-5-5-5-5-5-5-5-5-5---|
-------------------------3-3-------------------|

-------------------------------------------|
-------------------------------------------|
-------------------------------------------|
-------------------5-----------------------|
-3-3-3-3-3-3-3-3-3-3-5-5-5-5-5-5-5-5-5-5---|
-1-1-1-1-1-1-1-1-1---3-3-3-3-3-3-3-3-3-3---|
   Pm.............     Pm...............
[ Tab from: http://www.guitaretab.com/a/a-small-victory/64694.html ]
Guitar 1
-----------------------------------|
-----------------------------------|
-5-5-5-5-5-5-5-5-5-5-5-5-5-5-5-5---|
-5-5-5-5-5-5-5-5-5-5-5-5-5-5-5-5---|
-3-3-3-3-3-3-3-3-3-3-3-3-3-3-3-3---|
-----------------------------------|

Guitar 2
---------------------------------------|
---------------------------------------|
-12-12---12-12-------------------------|
--------------------9/12-9/10/9/10-----|
----------------------------------10---|
---------------------------------------|

Both Guitars

-------------------------------------------|
-------------------------------------------|
-------------------------------------------|
-------------------5-----------------------|
-3-3-3-3-3-3-3-3-3-3-5-5-5-5-5-5-5-5-5-5---|
-1-1-1-1-1-1-1-1-1---3-3-3-3-3-3-3-3-3-3---|
   Pm.............     Pm...............

Guitar 1
-----------------------------------|
-----------------------------------|
-5-5-5-5-5-5-5-5-5-5-5-5-5-5-5-5---|
-5-5-5-5-5-5-5-5-5-5-5-5-5-5-5-5---|
-3-3-3-3-3-3-3-3-3-3-3-3-3-3-3-3---|
-----------------------------------|

Guitar 2
---------------------------------------|
---------------------------------------|
-12-12---12-12-------------------------|
--------------------9/12-9/10/9/10-----|
----------------------------------10---|
---------------------------------------|

Both Guitars

-------------------------------------------|
-------------------------------------------|
-------------------------------------------|
-3-3-3-3-3-3-3-3-3-3-5-5-5-5-5-5-5-5-5-5---|
-3-3-3-3-3-3-3-3-3-3-5-5-5-5-5-5-5-5-5-5---|
-1-1-1-1-1-1-1-1-1-1-3-3-3-3-3-3-3-3-3-3---|

-------------------------------------------------------------|
-------------------------------------------------------------|
-5-5-5---5-5-5---5-5-5---5-5-5-------------------------------|
-5-5-5---5-5-5---5-5-5---5-5-5--5-5-5--5-5-5--3-3-3--3-3-3---|    2xs
-3-5-3---3-3-3---3-3-3---3-3-5--5-5-5--5-5-5--3-3-3--3-3-3---|
--------------------------------3-3-3--3-3-3--1-1-1--1-11---|

Guitar 1
--------------------------------------------------------------------------------------------------------|
--------------------------------------------------------------------------------------------------------|
--------------------------------------------------------------------------------------------------------|
-5-5-5-5-5-----5-5------------------5-5-5-5-5---------------5-5-5-5---------------5-5-5-5-5-------------|
-3-3-3-3-3-5-5-3-3-5-3-3-3-3-3-3-3--3-3-3-3-3-7-7-7-7-7-5-5-3-3-3-3-3-3-3-3-3-3-3-3-3-3-3-3-7-7-7-7-7---|
-----------3-3-----3-1-1-1-1-1-1-1------------5-5-5-5-5-3-3---------1-1-1-1-1-1-1-----------5-5-5-5-5---|
           P                   P                        P                     p

---------------------------------------------------|
---------------------------------------------------|
-----5-5-5-5-----------------5-5-5-5-5-------------|
-----5-5-5-5-----------------5-5-5-5-5-------------|
-5-5-3-3-3-3--3-3-3-3-3-3-3--3-3-3-3-3-7-7-7-7-7---|
-3-3----------1-1-1-1-1-1-1------------5-5-5-5-5---|
 P                      P


---------------------------------------------------|
---------------------------------------------------|
-----5-5-5-5-----------------5-5-5-5-5-------------|
-----5-5-5-5-----------------5-5-5-5-5-------------|
-5-5-3-3-3-3--3-3-3-3-3-3-3--3-3-3-3-3-7-7-7-7-7---|
-3-3----------1-1-1-1-1-1-1------------5-5-5-5-5---|
 P                      P

Guitar 2     Increasingly get louder
--------------------------------------------|
--------------------------------------------|
5-5-5-5-5-5-5-5-5-5-5-5-5-5-5-5-5-5-5-5-5---|
--------------------------------------------|   alot xs
--------------------------------------------|
--------------------------------------------|


------------------------------------------------------------------------------------------------------|
------------------------------------------------------------------------------------------------------|
------------------------------------------------------------------------------------------------------|
-------5-5-----------------------------5-5-----------------------------5-5----------------------------|
-5-5-5-3-3-3-3-3-3-3-3-3-3-3-3-3-5-5-5-3-3-7-7-7-7-7-7-7-7-7-7-7-5-5-5-3-3--3-3---3-3---3-3---3-3-3---|
-3-3-3-----1-1-1-1-1-1-1-1-1-1-1-3-3-3-----5-5-5-5-5-5-5-5-5-5-5-3-3-3------1-1---1-1---1-1---1-1-1---|

-------------------------------------------------|
-------------------------------------------------|
-5-5---5-5---5-5---5-5---------------------------|
-5-5---5-5---5-5---5-5---5-5---5-5---3-3---3-3---|
-3-3---3-3---3-3---3-3---5-5---5-5---3-3---3-3---|
-------------------------3-3---3-3---1-1---1-1--|

Guitar 1
-------------------------------------------------|
-------------------------------------------------|
-5-5---5-5---5-5---5-5---------------------------|
-5-5---5-5---5-5---5-5---5-5---5-5---3-3---3-3---|    2xs
-3-3---3-3---3-3---3-3---5-5---5-5---3-3---3-3---|
-------------------------3-3---3-3---1-1---1-1---|

Guitar 2
--------------------------------------|
--------------------------------------|
-12--------12--------12---------------|   4xs
---10-9-10---10-9-10---10-9-12-10-9---|
--------------------------------------|

Guitar 2 changes
----------------------------------|
----------------------------------|
-9-9-9--9-9-9--10-10-10--10-10-10-|        2xs
-x-x-x--x-x-x---x--x--x---x--x--x-|
-7-7-7--7-7-7---8--8--8---8--8--8-|
----------------------------------|


Guitar 2 changes back
------------------------------------------|
------------------------------------------|
-12---------12--------12------------------|     4xs
----10-9-10---10-9-10----10-9-12-10-9-----|
------------------------------------------|


www.asmallvictory.net
Related for Thier Lovers Fall tab