Song name
# A B C D E F G H I J K L M N O P Q R S T U V W X Y Z

A Small Victory - Farewell Capeside tab

Help us improve GuitareTab! Take a short survey!
----------------------------------------------------------------------------
	           FAREWELL CAPESIDE - A Small Victory                     
-----------------------------------------------------------------------------
Tabbed by: Brian Brady
Email: bb143474@student.fullerton.edu

Artist: A Small Victory
Album: El Camino

This tab is far from perfect, but it's pretty damn close. The intro sounds really
cool. A Small Victory's guitarists are awesome; I am not. 

Tuning: standard

e|------0-------------------------------------0------------------3--|
B|---0h3-3-----0--3p0--------------0~------0h3-3----0---3p0------3--|
G|-0~-------2/4--4----2p0-----0-0-------0~-------2/4--4-----2p0--0--|
D|----------0~-------------2~--2--2--------------0~--------------0--|
A|--------------------------------------3~-----------------------2--|
E|-3~----------------------0~------------------------------------3--|

e|-------------3----|
B|-------------3----|
G|----0--------0----|
D|-0h2------0--0----|
A|-------0h2---2----|
E|-------------3----|

Verses:
    G D Em    C D G

Fill:

e|--------3----|
B|--------3----|
G|--------0----|
D|-----0--0----|
A|----0---2----|
E|-0h2----3----|

Chorus
(picking that I haven't yet figured out, but these chords work)

C D Em        C D G 
C D G\F#\Em   C D Em

The intro is repeated, as is the chorus. I don't have the lead guitar for the solo,
but here is the electric rhythm guitar:


e|-----------------------|
B|-----------------------|
G|-------------5-x8--7-x8|
D|-2-x8--5-x8--5-----7---|
A|-2-----5-----3-----5---|
E|-0-----3---------------|

Then, repeat chorus
Related for Farewell Capeside tab