Song name
# A B C D E F G H I J K L M N O P Q R S T U V W X Y Z

A-sound - Uyanga tab

Artist: A sound
Title: Uyanga
Tabbed by: Trueman
-----------------------------------------

G
Цагаан үүлэн дээгүүр
Замын машин дундуур
Bm
Чамаас түрүүлж би гарлаа
G
Цагаа орхиод гарсан
Цасаар шуураад даарсан
Bm
Чиний цэцгийг унагаад алдсан

C
Хүрэх газар холдоод
Хүсэл сэтгэл хөлдсөн
G
Чамаас ирсэн дуудлага
Чихэнд ирэхгүй зөрсөн
C
Миний өмнөөс ирсэн
                    G
Харцыг хараад буцсан


Нэг л өдөр болсон

Хоёр замаар салсан

Хоёрын хооронд орсон цас

Хиймэл үүлэнд хууртсан

Хууртсан үүлэнд зүүгдсэн

Хүний нүднээс нуусан зүүд

Ихийг бодож эргэн

Дуулсан дуугаа санасан

Нуугдсан үүлийг хараад

Татсан тамхиа хаясан

Чиний зүгт жаргах наруг харсан

G           Bm              C
Чи ганцаар намайг хүлээхгүй

G          Bm          Am
Би болзсон газраа олохгүй /2X/

---------------------------------------- ---

Чи ганцаар намайг хүлээхгүй
Би болзсон газраа олохгүй /4X/

E|----------------------7-----|
B|---------------8-7-8--8-----|
G|---5-4-5---/7---------9-----|
D|----------------------9-----|
A|----------------------x-----|
E|----------------------x-----|



E|-------------------------------|
B|---8-7----11^13^11--8----------|
G|-------7--------------7-5~-----|
D|-------------------------------|
A|-------------------------------|
E|-------------------------------|


^^^^^^^^^^^^^^^^^^^^^^^^^^^^^^^^^^^^^^^^^^^
                             have fun!   :D
^^^^^^^^^^^^^^^^^^^^^^^^^^^^^^^^^^^^^^^^^^^
Tap to rate this tab
 
# A B C D E F G H I J K L M N O P Q R S T U V W X Y Z