Song name
# A B C D E F G H I J K L M N O P Q R S T U V W X Y Z

A Stained Glass Romance - Tom Cruise Control tab

Tuning is Drop B

e|---------------------------------------------------------------|
B|---------------------------------------------------------------|
G|---------------------------------------------------------------|
D|---------------------------------------------------------------| 2x
A|-----------8888888888888--------888888-8----8---8--------------|
E|--0-0-0------------------8-8-8--------8-8-8---8----------------|

e|--------------------------------------------------------------------|
B|--------------------------------------------------------------------|
G|--------------------------------------------------------------------|
D|--------------------------------------------------------------------| 2x
A|-------12121212121212121212121212--------121212121212--12----12--12-|
E|-0-0-0-----------------------------8-8-8--------------8--8-8---8----|

e|---------------------------------------------------------------|
B|---------------------------------------------------------------|
G|---------------------------------------------------------------|
D|---------------8-----------------------------------------------| 2x
A|--121212-888---8--------5h7-7-7-----7h8-8-8-----8h10p8---------|
E|---------------8----0-0---------0-0---------0-0----------------|

e|---------------------------------------------------------------|
B|---------------------------------------------------------------|
G|-10--9--7--5---------------------------------------------------|
D|-x---x--x--x---------------------------------------------------|
A|-8---7--5--3------5h7-7-7-----7h8-8-8------8h10p8--------------|
E|--------------0-0---------0-0----------0-0---------------------|

e|---------------------------------------------------------------|
B|---------------------------------------------------------------|
G|-10-12--14/15/14-----------------------------------------------|
D|-x---x---x--x--x-----------------------------------------------|
A|-8--10--12/13/12------5h7-7-7------7h8-8-8------8h10p8---------|
E|------------------0-0----------0-0----------0-0----------------|

e|---------------------------------------------------------------|
B|---------------------------------------------------------------|
G|---------------------------------------------------------------|
D|---------------------------------------------------------------|
A|-----------8888888888888--------888888-8----8---8--------------|
E|--0-0-0------------------8-8-8--------8-8-8---8----------------|

e|--------------------------------------------------------------------|
B|--------------------------------------------------------------------|
G|--------------------------------------------------------------------|
D|--------------------------------------------------------------------|
A|-------12121212121212121212121212--------121212121212--12----12--12-|
E|-0-0-0-----------------------------8-8-8--------------8--8-8---8----|

e|---------------------------------------------------------------|
B|---------------------------------------------------------------|
G|---------------------------------------------------------------|
D|---------------------------------------------------------------|
A|-0-0--000--000-0--000--000-0-000-000---0--0---000-000-0-000-000|
E|-0-0--000--000-0--000--000-0-000-000---0--0---000-000-0-000-000|

e|-----------------------------------------------------------------------|
B|-----------------------------------------------------------------------|
G|-----------------------------------------------------------------------|
D|-----------------------------------------------------------------------|
A|------000-000-000-000-000-0--000-000--000-000--000-000-000---0--000-000|
E|-3b---111-111-111-111-111-1--111-111--111-111--111-111-111---1--111-111|

e|---------------------------------------------------------------|
B|---------------------------------------------------------------|
G|---------------------------------------------------------------|
D|---------------------------------------------------------------|
A|-0-0--000--000-0--000--000-0-000-000---0--0---000-000-0-000-000|
E|-0-0--000--000-0--000--000-0-000-000---0--0---000-000-0-000-000|

e|-----------------------------------------------------------------------|
B|-----------------------------------------------------------------------|
G|-----------------------------------------------------------------------|
D|-----------------------------------------------------------------------|
A|------000-000-000-000-000-0--000-000--000-000--000-000-000---0--000-000|
E|-3*---111-111-111-111-111-1--111-111--111-111--111-111-111---1--111-111|

e|---------------------------------------------------------------|
B|---------------------------------------------------------------|
G|---------------------------------------------------------------|
D|---------------------------------------------------------------| 2x
A|-------12121212121212121212121212--------888888--8---8--8------|
E|-0-0-0-----------------------------8-8-8-------8--8-8-8--------|

e|---------------------------------------------------------------|
B|---------------------------------------------------------------|
G|---------------------------------------------------------------|
D|---------------8-----------------------------------------------| 2x
A|--121212-888---8--------5h7-7-7-----7h8-8-8-----8h10p8---------|
E|---------------8----0-0---------0-0---------0-0----------------|

e|---------------------------------------------------------------|
B|---------------------------------------------------------------|
G|-10--9--7--5---------------------------------------------------|
D|-x---x--x--x---------------------------------------------------|
A|-8---7--5--3------5h7-7-7-----7h8-8-8------8h10p8--------------|
E|--------------0-0---------0-0----------0-0---------------------|

e|---------------------------------------------------------------|
B|---------------------------------------------------------------|
G|-10-12--14/15/14-----------------------------------------------|
D|-x---x---x--x--x-----------------------------------------------|
A|-8--10--12/13/12------5h7-7-7------7h8-8-8------8h10p8---------|
E|------------------0-0----------0-0----------0-0----------------|

e|--------------------------------------------------------|------------|
B|--------------------------------------------------------|------------|
G|--------------------------------------------------------|------------|
D|--------------------------------------------------------|------------|
A|-------121212121212--12---12-12---------888888-8--7--7h8|-8~--7~--3~-|
E|-0-0-0-------------0---0-0--0-----8-8-8-------8-8--8----|------------|

Repeat breakdown until end

http://www.myspace.com/astainedglassromance/music
Tap to rate this tab
 
# A B C D E F G H I J K L M N O P Q R S T U V W X Y Z