Guitaretab - guitar tabs
Song name
# A B C D E F G H I J K L M N O P Q R S T U V W X Y Z

A Static Lullaby - Hang Em High tab

yeah no one else tabbed out the whole song so i figured id do it,b4 no one else ever does

Guitar 1 (John)

intro
e|-----------------------------------------|
b|-----------------------------------------|
g|------------------999999-101010101010----|
d|-000000000000-----xxxxxx--xxxxxxxxxxx----|
a|-000000000000-----777777--8-8-8-8-8-8----|
d|-000000000000----------------------------|

e|--------------------------|
b|--------------------------|
g|------------------999999--|
d|-000000000000-----xxxxxx--|
a|-000000000000-----777777--|
d|-000000000000-------------|

cant figure out the little part after that before Dan sings

Verse: 4x
e|-------------------------------------------|
b|-------------------------------------------|
g|---101010101010101010----999999999---------|
d|----xxxxxxxxxxxxxxxxx----xxxxxxxxx---------|
a|-0--8-8-8-8-8-8-8-8-8--0-777777777---------|
d|-0---------------------0-------------------|

Chorus                              4x  then after 4th time
e|------------------------------------|------------------|
b|------------------------------------|------------------|
g|------------------------------------|-99999-1010101010-|
d|-88888888888--0000000000--3333333333|-xxxxx--x-x-x-x-x-|
a|-88888888888--0000000000--3333333333|-77777--8-8-8-8-8-|
d|-88888888888--0000000000--3333333333|------------------|

bridge:
e|----------------------|
b|----------------------|
g|----------------------|
d|-0~-------------------|
a|-0~-------------------|
d|-0~-------------------|

VERSE again

then Chorus

post-chorus 2x
e|-----------------------------------------|
b|-----------------------------------------|
g|-----------------------------------------|
d|-8-8---8-8---0-0--0-3--------------------|
a|-8-8---8-8---0-0--0-3--------------------|
d|-8-8---8-8---0-0--0-3--------------------|

then this part(you figure out the timing & stuff aint that hard)2x
e|-----------------------------------------|
b|-----------------------------------------|
g|-----------------------------------------|
d|-----------------------------------------|
a|------5-----3-----8----------------------|
d|--3-3---1-1---6-6------------------------|

i know this' not accurate but its a start
e|-----------------------------------------|---------------|
b|-----------------------------------------|---------------|
g|-----------------------------------------|---------------|
d|-----------------------------------------|---------------|
a|-----3----5----7----9----7~--------------|---------------|
d|-0230-3450-4560-5670-6750----------------|---------------|
[ Tab from: http://www.guitaretab.com/a/a-static-lullaby/162360.html ]
e|-----------------------------------------|---------------|
b|-----------------------------------------|---------------|
g|-----------------------------------------|---------------|
d|-----------------------------------------|---------------|
a|-----3----5----7----9----9~--------------|---------------|
d|-0230-3450-4560-5670-6750----------------|---------------|
Reapet this 4x

chorus

now done

Guitar 2 (DAN) 2x

e|-----------------------------------------|
b|-----------------------------------------|
g|------------------7777777777777777-------|
d|-000000000000-----xxxxxxxxxxxxxxxx-------|
a|-000000000000-----5555555555555555-------|
d|-000000000000----------------------------|

Verse: 4x
e|-------------------------------------------|
b|-------------------------------------------|
g|---777777777777777777----777777777---------|
d|---xxxxxxxxxxxxxxxxxx----xxxxxxxxx---------|
a|-0-555555555555555555--0-555555555---------|
d|-0---------------------0-------------------|

Chorus                              4x  then after 4th time
e|------------------------------------|----------------------------------|
b|------------------------------------|----------------------------------|
g|------------------------------------|----------------------------------|
d|-88888888888--0000000000--3333333333|-101010101010-11-11-11-11-11-11---|
a|-88888888888--0000000000--3333333333|-101010101010-11-11-11-11-11-11---|
d|-88888888888--0000000000--3333333333|-101010101010-11-11-11-11-11-11---|

bridge:
e|----------------------|
b|----------------------|
g|----------------------|
d|-0~-------------------|
a|-0~-------------------|
d|-0~-------------------|

VERSE again

then Chorus

post-chorus

you figure out the timing & stuff aint that hard 4x
e|-----------------------------------------|
b|-----------------------------------------|
g|-----------------------------------------|
d|-----------------------------------------|
a|------5-----3-----8----------------------|
d|--3-3---1-1---6-6------------------------|

i know this' not accurate but its a start
e|-----------------------------------------|---------------|
b|-----------------------------------------|---------------|
g|-----------------------------------------|---------------|
d|-----------------------------------------|---------------|
a|-----3----5----7----9----7~--------------|---------------|
d|-0230-3450-4560-5670-6750----------------|---------------|

e|-----------------------------------------|---------------|
b|-----------------------------------------|---------------|
g|-----------------------------------------|---------------|
d|-----------------------------------------|---------------|
a|-----3----5----7----9----9~--------------|---------------|
d|-0230-3450-4560-5670-6750----------------|---------------|
reapet this 4x

chorus

then done!

yeah there are a few errors here and there, but you can work around them,id love
to hear some comments,and if you have any corrections please fix them or let me know!
Related for Hang Em High tab