Guitaretab - guitar tabs
Song name
# A B C D E F G H I J K L M N O P Q R S T U V W X Y Z

A Static Lullaby - Everybodys Got A Lil Fonz N Em tab

Best song by A Static Lullaby.
Its NOT perfect, but it's practically how you play the song.
great song...

[Intro / Verses]
e|--------------------------------------------------|
B|--------------------------------------------------|
G|--------------------------------------------------|
D|--------------------------------------------------|
A|--------------------------------------------------|
D|--0-0-15-0-0-15-0-0-15-0-15-14-15-14-0------------|
[Continued]
e|--------------------------------------------------|
B|--------------------------------------------------|
G|--------------------------------------------------|
D|--------------------------------------------------|
A|--------------------------------------------------|
D|--0-15-17-0-15-17-0-15-17---15--14-13-------------|

[Pre-Chorus / Bridge]x4
e|--------------------|--------------------------------|
B|--------------------|--------------------------------|
G|--------------------|--------------------------------|
D|--------------------|--------------------------------|
A|----3h0p------------|----6h0p------------------------|
D|--2------1h0p--0----|--5------4h0p-------------------|

[ Tab from: http://www.guitaretab.com/a/a-static-lullaby/183003.html ]
[Chorus]
e|--------------------------------------------------------------|
B|--------------------------------------------------------------|
G|--------------------------------------------33333333----------|
D|--555555555-88888888-1111111111--333333333--33333333--444444--|
A|--555555555-88888888-1111111111--333333333--00000000--444444--|
D|--555555555-88888888-1111111111--333333333------------444444--|
[Chorus Continued]
e|--------------------------------------------------------------|
B|--------------------------------------------------------------|
G|--------------------------------------------------------------|
D|--55555555555555-1111111111111-333333333333-55555555555-------|
A|--55555555555555-1111111111111-333333333333-55555555555-------|
D|--55555555555555-1111111111111-333333333333-44444444444-------|

Intro / Verse 2x
Pre-Chorus 2x

[Breakdown]
e|--------------------------------------------------------------|
B|--------------------------------------------------------------|
G|--------------------------------------------------------------|
D|--2~-xxxxxx-2~-xxxxxx-2--2-xxxxxx--2--xxxxxxx--2--2--xxxxxx---|
A|--2~-xxxxxx-2~-xxxxxx-2--2-xxxxxx--2--xxxxxxx--2--2--xxxxxx---|
D|--2~-xxxxxx-2~-xxxxxx-2--2-xxxxxx--2--xxxxxxx--2--2--xxxxxx---|

Pre-Chorus 3x,

Chorus,

Intro / Verse
Related for Everybodys Got A Lil Fonz N Em tab