Guitaretab - guitar tabs
Song name
# A B C D E F G H I J K L M N O P Q R S T U V W X Y Z

A Static Lullaby - Love To Hate Hate To Me tab

-------------------------------------------------------------------------------
                  Love to hate, Hate to me - A Static Lullaby
-------------------------------------------------------------------------------
Tabbed by: Eddyous
Email: "pso_fanatic002@yahoo.com" or "pso_fanatic@hotmail.com"

Tuning: DGCGBe

e|------------------------------------------------------------------------|
B|------------------------------------------------------------------------|
G|------------------------------------------------------------------------|
C|-2-2-2-2-2--2-2-2----2-2-2-2-2--2-2-2-----------------------------------|
G|-2-2-2-2-2--2-2-2----2-2-2-2-2--2-2-2-----------------------------------|
D|-0-0-0-0-0--0-0-0----0-0-0-0-0--0-0-0---0-0-7-0-0-9-0-0-11-0-0-9-0-0-7--|

e|---------------------------------------------------------------|
B|---------------------------------------------------------------|
G|---------------------------------------------------------------|
C|--6-6-6-6-6-----------------------------------6-6-6-6-4-4-4-4--|
G|--6-6-6-6-6-----------------------------------6-6-6-6-4-4-4-4--|
D|--4-4-4-4-4---0-0-7-0-0-9-0-0-11-0-0-9-0-0-7--4-4-4-4-2-2-2-2--|

e|------------------------------------------------------------------------------------|
B|------------------------------------------------------------------------------------|
G|------------------------------------------------------------------------------------|
C|--------------------------------------6-6-6-6-6-------------------------------------|
G|--------------------------------------6-6-6-6-6-------------------------------------|
D|--0-0-11-0-0-12-0-0-14-0-0-12-0-0-11--4-4-4-4-4--0-0-11-0-0-12-0-0-14-0-0-16-17-14--|

e|--------------------------------------------------------------------------------------------|
B|--------------------------------------------------------------------------------------------|
G|--------------------------------------------------------------------------------------------|
C|--6-6-6-6-4-4-4-4-2-2-2-2-2--6-6--6-6--4-4--4-4--2-2-2--11-11-11--13-13-13-13--14-14-14-14--|
G|--6-6-6-6-4-4-4-4-2-2-2-2-2--6-6--6-6--4-4--4-4--2-2-2--11-11-11--13-13-13-13--14-14-14-14--|
D|--4-4-4-4-2-2-2-2-0-0-0-0-0--4-4--4-4--2-2--2-2--0-0-0--9--9--9---11-11-11-11--12-12-12-12--|

e|----------------------------------------------------------------------------|
B|----------------------------------------------------------------------------|
G|----------------------------------------------------------------------------|
C|--2-2-2-2-2--6-6--6-6--4-4--4-4--2-2-2--11-11-11--13-13-13-13--14-14-14-14--|
G|--2-2-2-2-2--6-6--6-6--4-4--4-4--2-2-2--11-11-11--13-13-13-13--14-14-14-14--|
D|--0-0-0-0-0--4-4--4-4--2-2--2-2--0-0-0--9--9--9---11-11-11-11--12-12-12-12--|

e|-------------------------------------------------------------------------|
B|-------------------------------------------------------------------------|
G|-------------------------------------------------------------------------|
C|--7-7-7-7-7-7-7-7-9-9-9-9-9-9-9-9-6-6-6-6-6-6-6-6-14-14-14-14-13-13-9-9--|
G|--7-7-7-7-7-7-7-7-9-9-9-9-9-9-9-9-6-6-6-6-6-6-6-6-14-14-14-14-13-13-9-9--|
D|--5-5-5-5-5-5-5-5-7-7-7-7-7-7-7-7-4-4-4-4-4-4-4-4-12-12-12-12-11-11-7-7--|
                                  X2

e|-----------------------------------------------------------------------------------------------|
B|-----------------------------------------------------------------------------------------------|
G|-----------------------------------------------------------------------------------------------|
C|-----------------------------------6-6-6-6-6----------------------------------6-6-6-6-4-4-4-4--|
G|-----------------------------------6-6-6-6-6----------------------------------6-6-6-6-4-4-4-4--|
D|---0-0-7-0-0-9-0-0-11-0-0-9-0-0-7--4-4-4-4-4--0-0-7-0-0-9-0-0-11-0-0-9-0-0-7--4-4-4-4-2-2-2-2--|

e|------------------------------------------------------------------------------------|
B|------------------------------------------------------------------------------------|
G|------------------------------------------------------------------------------------|
C|--------------------------------------6-6-6-6-6-------------------------------------|
G|--------------------------------------6-6-6-6-6-------------------------------------|
D|--0-0-11-0-0-12-0-0-14-0-0-12-0-0-11--4-4-4-4-4--0-0-11-0-0-12-0-0-14-0-0-16-17-14--|
[ Tab from: http://www.guitaretab.com/a/a-static-lullaby/54385.html ]
e|--------------------------------------------------------------------------------------|
B|--------------------------------------------------------------------------------------|
G|--------------------------------------------------------------------------------------|
C|--6-6-6-6-6-4-4-4-4-4---x-2-2--2-2--2-2--6-6--6-6--6-6--2-2--2-2--2-2--6-6--4-4--4-4--|
G|--6-6-6-6-6-4-4-4-4-4---x-2-2--2-2--2-2--6-6--6-6--6-6--2-2--2-2--2-2--6-6--4-4--4-4--|
D|--4-4-4-4-4-2-2-2-2-2---x-0-0--0-0--0-0--4-4--4-4--4-4--0-0--0-0--0-0--4-4--2-2--2-2--|

e|------------------------------------------------------------|
B|------------------------------------------------------------|
G|------------------------------------------------------------|
C|--x-2-2--2-2--2-2--6-6--6-6--6-6--2-2--2-2--2-2--6-6--4-4--|
G|--x-2-2--2-2--2-2--6-6--6-6--6-6--2-2--2-2--2-2--6-6--4-4--|
D|--x-0-0--0-0--0-0--4-4--4-4--4-4--0-0--0-0--0-0--4-4--2-2--|

e|-------------------------------------------------------------------------|
B|-------------------------------------------------------------------------|
G|-------------------------------------------------------------------------|
C|--7-7-7-7-7-7-7-7-9-9-9-9-9-9-9-9-6-6-6-6-6-6-6-6-14-14-14-14-13-13-9-9--|
G|--7-7-7-7-7-7-7-7-9-9-9-9-9-9-9-9-6-6-6-6-6-6-6-6-14-14-14-14-13-13-9-9--|
D|--5-5-5-5-5-5-5-5-7-7-7-7-7-7-7-7-4-4-4-4-4-4-4-4-12-12-12-12-11-11-7-7--|
                                  X2

e|------------------------------------------------------|
B|------------------------------------------------------|
G|------------------------------------------------------|
C|------------------------------------------------------|
G|------------------------------------------------------|
D|--14-12-11-12--0-0-0-0-0-0--14-12-11-12--0-0-0-0-0-0--|
                                  X2

e|-----------------------------------------------------|
B|-----------------------------------------------------|
G|-----------------------------------------------------|
C|--11------------11-15-17-15---14---11-15-17-15---14--|
G|--11-------------------------------------------------|
D|--9--------------------------------------------------|

e|-------------------------------------------------------------------------|
B|-------------------------------------------------------------------------|
G|-------------------------------------------------------------------------|
C|--14-13-14-16-14-13-14-13----13-14-16-14-13-14-13----13-14-16-14-13-14-13|
G|--------------------------14----------------------14---------------------|
D|-------------------------------------------------------------------------|
                                  X2

e|------------------------------------------------------------------------|
B|------------------------------------------------------------------------|
G|------------------------------------------------------------------------|
C|----13-14-16-14-13-14-13----13-14-16-14-13-14-13----13-14-16-14-13-14-13|
G|-14----------------------14----------------------14---------------------|
D|------------------------------------------------------------------------|

e|--------------------------------|
B|--------------------------------|
G|-------------------------12-11--|
C|----13-14-16-14-13-14-13--------|
G|-14-----------------------------|
D|--------------------------------|

e|-------------------------------------------------------------------------|
B|-------------------------------------------------------------------------|
G|-------------------------------------------------------------------------|
C|--7-7-7-7-7-7-7-7-9-9-9-9-9-9-9-9-6-6-6-6-6-6-6-6-14-14-14-14-13-13-9-9--|
G|--7-7-7-7-7-7-7-7-9-9-9-9-9-9-9-9-6-6-6-6-6-6-6-6-14-14-14-14-13-13-9-9--|
D|--5-5-5-5-5-5-5-5-7-7-7-7-7-7-7-7-4-4-4-4-4-4-4-4-12-12-12-12-11-11-7-7--|
                                  X2

e|-----------------------------------------------------------------------------------------------|
B|-----------------------------------------------------------------------------------------------|
G|-----------------------------------------------------------------------------------------------|
C|-----------------------------------6-6-6-6-6----------------------------------6-6-6-6-4-4-4-4--|
G|-----------------------------------6-6-6-6-6----------------------------------6-6-6-6-4-4-4-4--|
D|---0-0-7-0-0-9-0-0-11-0-0-9-0-0-7--4-4-4-4-4--0-0-7-0-0-9-0-0-11-0-0-9-0-0-7--4-4-4-4-2-2-2-2--|

e|------------------------------------------------------------------------------------|
B|------------------------------------------------------------------------------------|
G|------------------------------------------------------------------------------------|
C|--------------------------------------6-6-6-6-6-------------------------------------|
G|--------------------------------------6-6-6-6-6-------------------------------------|
D|--0-0-11-0-0-12-0-0-14-0-0-12-0-0-11--4-4-4-4-4--0-0-11-0-0-12-0-0-14-0-0-16-17-14--|

e|-------------------------|
B|-------------------------|
G|-------------------------|
C|---6-6-6-6-4-4-4-6-4--2--|
G|---6-6-6-6-4-4-4-6-4--2--|
D|---4-4-4-4-2-2-2-4-2--0--|

The tuning is DGCGBe for it to be more comfortable to play the song (at least it is to 
don't rate me 1 just because you don't like my way ^_^


Palm mute-x
(Palm mute end = )


==============================================================================
Related for Love To Hate Hate To Me tab