Song name
# A B C D E F G H I J K L M N O P Q R S T U V W X Y Z

A Static Lullaby - Hang Em Highchorus Rhythm tab

OK I've been wanting to learn to play this song for a while, and Ive been waiting for 
to make a tab for this song. I realized that its not gonna happen.... unless i get it 
and someone else add on to it.


here it is
E|----------------------------------------------------------------------------|
B|----------------------------------------------------------------------------|
G|----------------------------------------------------------------------------|
D|-8-8-8-8-8-8-8-8-8-8-8-8-8-8-8-8---0-0-0-0-0-0-0-0---3-3-3-3-3-3-3-3--------|
A|-8-8-8-8-8-8-8-8-8-8-8-8-8-8-8-8---0-0-0-0-0-0-0-0---3-3-3-3-3-3-3-3--------|
D|-8-8-8-8-8-8-8-8-8-8-8-8-8-8-8-8---0-0-0-0-0-0-0-0---3-3-3-3-3-3-3-3--------|
(0:54)                    And it's more than just a loss, but its over

E|----------------------------------------------------------------------------|
B|----------------------------------------------------------------------------|
G|----------------------------------------------------------------------------|
D|-8-8-8-8-8-8-8-8-8-8-8-8-8-8-8-8---0-0-0-0-0-0-0-0---3-3-3-3-3-3-3-3--------|
A|-8-8-8-8-8-8-8-8-8-8-8-8-8-8-8-8---0-0-0-0-0-0-0-0---3-3-3-3-3-3-3-3--------|
D|-8-8-8-8-8-8-8-8-8-8-8-8-8-8-8-8---0-0-0-0-0-0-0-0---3-3-3-3-3-3-3-3--------|
                     We're not singing mournful thoughts, and its over

E|----------------------------------------------------------------------------|
B|----------------------------------------------------------------------------|
G|----------------------------------------------------------------------------|
D|-8-8-8-8-8-8-8-8-8-8-8-8-8-8-8-8---0-0-0-0-0-0-0-0---3-3-3-3-3-3-3-3--------|
A|-8-8-8-8-8-8-8-8-8-8-8-8-8-8-8-8---0-0-0-0-0-0-0-0---3-3-3-3-3-3-3-3--------|
D|-8-8-8-8-8-8-8-8-8-8-8-8-8-8-8-8---0-0-0-0-0-0-0-0---3-3-3-3-3-3-3-3--------|
And I cant wait (can't wait),                until we give it all away

E|---------------------------------------------------------------------------------------------|
B|---------------------------------------------------------------------------------------------|
G|---------------------------------------------------------------------------------------------|
D|-8-8-8-8-8-8-8-8-8-8-8-8-8-8-8-8---10-10-10-10-10-10-10-10---11-11-11-11-11-11-11-11--0------|
A|-8-8-8-8-8-8-8-8-8-8-8-8-8-8-8-8---10-10-10-10-10-10-10-10---11-11-11-11-11-11-11-11--0------|
D|-8-8-8-8-8-8-8-8-8-8-8-8-8-8-8-8---10-10-10-10-10-10-10-10---11-11-11-11-11-11-11-11--0------|
     We're giving up our lives                         for this revolution


If anyone can add on to this that would be great. thanks.
Tap to rate this tab
# A B C D E F G H I J K L M N O P Q R S T U V W X Y Z