Song name
# A B C D E F G H I J K L M N O P Q R S T U V W X Y Z

A Touch Of Class - Around The World tab

-------------------------------------------------------------------------------
			     Around The World - A Touch Of Class
-------------------------------------------------------------------------------
Tabbed by: Venom251
Email: Venom251@Yahoo.com

Tuning:Standard
Main Riff
e|-12----12------------------------------------------------------------------|
B|-----13---12-----12-13----13-15---12-15------------------------------------|
G|---14----------12-------14------12-----------------------------------------|
D|-------------14-------15---------------------------------------------------|
A|---------------------------------------------------------------------------|
E|---------------------------------------------------------------------------|
Tap to rate this tab
# A B C D E F G H I J K L M N O P Q R S T U V W X Y Z