Song name
# A B C D E F G H I J K L M N O P Q R S T U V W X Y Z

A Vain Attempt - I Cant Escape tab

Help us improve GuitareTab! Take a short survey!
I Canít Escape INTRO kd casis

--------------------------|---------------------------|
--------------------------|---------------------------|
---5-5-----7-7-7-7--------|--5-5---7-7-7-7--6-6-6-6---| 
---5-5--------------------|--5-5----------------------|
---5-5--------------------|--5-5----------------------|
---0-0--------------------|--5-5----------------------|




Pre-Chorus


-------------17--14-------|----------17---14--12------|
---------15---------------|------15-------------------|
----16--------------------|--16-----------------------|  x2
--------------------------|---------------------------|
--------------------------|---------------------------|
--------------------------|---------------------------|

Related for I Cant Escape tab