Song name
# A B C D E F G H I J K L M N O P Q R S T U V W X Y Z

A Vain Attempt - You Broke My Heart tab

TITLE:       you broke my heart
ARTIST:      a vain attempts
ALBUM:       love is like suicide
TABBED BY:   marbek gatdula
E-MAIL:      schizophrenic_over_you@yahoo.com


this band freakin rockz! this song'z for the dude that requested it. hehe, hope you like 
man.. just listen to the song to get the correct strumming pattern and timing... 
i also made simple chords of the song after the tab... hope you pipol like my tab...
add me in friendster: schizophrenic_over_you@yahoo.com


GUITAR TUNING : STANDARD

<--------------------------tab----------------------------->


intro: (repeat 4x)
guitar1:
e|------------------------------------------------------|
B|-------1-------------1-----------1-0--------------3---|
G|-------3^5-----------3^5-------------0--------5-4-----|
D|---2------------2------------3------------5-----------|
A|---0------------0------------3------------5-----------|
E|-----------------------------1------------3-----------|

guitar2: (enters after doing 2x for guitar1)
e|------------------------------------------------------|
B|------------------------------------------------------|
G|---9------9-10-9---9-10-------5------------7----------|
D|---x------x-x--x---x-x--------x------------x----------|
A|---7------7-8--7---7-8--------3------------5----------|
E|------------------------------------------------------|

verse:
guitar1:
e|---------------------------------------------------------------|
B|---------------------------------------------------------------|
G|---------------------------------------------------------------|
D|---2------------3------------5------------2------------5---2---|
A|---0------------3------------5------------0------------5---0---|
E|----------------1------------3-------------------------3-------|

guitar2:
e|---------------------------------------------------------------|
B|---------------------------------------------------------------|
G|---9----10\-----5------------7------------9------------7---9---|
D|---x----x-------x------------x------------x------------x---x---|
A|---7----8-\-----3------------5------------7------------5---7---|
E|---------------------------------------------------------------|


guitar1:
e|---------------------------------------------------|
B|---------------------------------------------------|
G|---------------------------------------------------|
D|---2------------3------------5------------2--------|
A|---0------------3------------5------------0--------|
E|----------------1------------3---------------------|

guitar2:
e|---------------------------------------------------|
B|---------------------------------------------------|
G|---9----10\-----5------------7------------9---10---|
D|---x----x-------x------------x------------x---x----|
A|---7----8-\-----3------------5------------7---8----|
E|---------------------------------------------------|

interlude1:
guitar1:
e|-----------------------------------------------|
B|-----------------------------------------------|
G|-----------------------------------------------|
D|---3-3-3-3---3-3-3-3---5-5-5-5---5-5-5-5-------|
A|---3-3-3-3---3-3-3-3---5-5-5-5---5-5-5-5-------|
E|---1-1-1-1---1-1-1-1---3-3-3-3---3-3-3-3-------|

guitar2:
e|-----------------------------------------------|
B|-----------------------------------------------|
G|---5-5-5-5---5-5-5-5---7-7-7-7---7-7-7-9-7-5---|
D|---x-x-x-x---x-x-x-x---x-x-x-x---x-x-x-x-x-x---|
A|---3-3-3-3---3-3-3-3---5-5-5-5---5-5-5-7-5-3---|
E|-----------------------------------------------|
     ^   ^     ^   ^     ^   ^     ^   ^
     |P M|     |P M|     |P M|     |P M|

chorus: (repeat 2x)
guitar1:
e|--------------------------------------------------|
B|--------------------------------------------------|
G|--------------------------------------------------|
D|---2------------5------------3------------5-------|
A|---0------------3------------3------------5-------|
E|-----------------------------1------------3-------|

guitar2:
e|--------------------------------------------------|
B|--------------------------------------------------|
G|---5------------9------------10-----------5---4---|
D|---x------------x------------x------------x---x---|
A|---3------------7------------8------------3---2---|
E|--------------------------------------------------|

interlude2:
guitar1:
e|-----------------------------------------------------------|
B|-----------------------------------------------------------|
G|-----------------------------------------------------------|
D|---3------------5------------2-----------------------------|
A|---3------------5------------0-----------------------------|
E|---1------------3------------------------------------------|

guitar2:
e|-----------------------------------------------------------|
B|-----------------------------------------3-3---------------|
G|-------5-5-4--------5-5-4--------5-5-4-4-----5-5-4-4-5-4---|
D|-------------5------------5--------------------------------|
A|-----------------------------------------------------------|
E|-----------------------------------------------------------|

bridge:
guitar1:
e|--------------------------------------------------------------|
B|--------------------------------------------------------------|
G|--------------------------------------------------------------|
D|---3------------2------------5------------3-------------------|
A|---3------------0------------5------------3-------------------|
E|---1-------------------------3------------1-------------------|

guitar2:
e|--------------------------------------------------------------|
B|--------------------------------------------------------------|
G|---5------------9------------10-----------9-------------------|
D|---x------------x------------x------------x-------------------|
A|---3------------7------------8------------7-------------------|
E|--------------------------------------------------------------|


guitar1:
e|--------------------------------------------------------------|
B|--------------------------------------------------------------|
G|--------------------------------------------------------------|
D|---3------------2------------5------------3-------------------|
A|---3------------0------------5------------3-------------------|
E|---1-------------------------3------------1-------------------|

guitar2:
e|--------------------------------------------------------------|
B|--------------------------------------------------------------|
G|---5------------9------------10-----------5-------------------|
D|---x------------x------------x------------x-------------------|
A|---3------------7------------8------------3-------------------|
E|--------------------------------------------------------------|


sequence:
- intro
- -verse
- - - interlude1
- - - - chorus
- - - - - interlude2

- verse
- - interlude2
- - - chorus
- - - - interlude2

- verse
- - interlude1
- - - chorus
- - - - bridge

- chorus (outro)


Key:

T   - Tap (Strings)
PM  - Palm Muting
/   - Slide Up
\   - Slide Down
h   - Hammer-on
p   - Pull-off
~   - Let the note ringing
s   - Strum softly
c   - Continue and Continuation
^   - Bend
*   - Harmonics
x  - dead string or scratching



<------------------------chordz---------------------------->


intro:
Am - Am - F - G


verse:
Am              F                G          Am   G - Am
you know that I want you, I want you, every day
Am              F                G          Am
you know that I miss you, I miss you, by my side

interlude:
F - G


chorus:
Am            C             F              G
she broked my heart and you broked my life too
Am     C               F                 G
she is bad because she broked up with me too

interlude:
F - G - Am


verse:
Am         F                   G                Am   G - Am
so take my advice wherever you lies and made me alone
Am               F                 G                   Am
cuz' when you're dead, when you're dead, I'll write to you

interlude:
F - G


chorus:
Am            C             F              G
she broked my heart and you broked my life too
Am     C               F                 G
she is bad because she broked up with me too

interlude:
F - G - Am


verse:
Am              F                G          Am   G - Am
you know that I want you, I want you, every day
Am              F                G          Am
you know that I miss you, I miss you, by my side

interlude:
F - G


chorus:
Am            C             F              G
she broked my heart and you broked my life too
Am     C               F                 G
she is bad because she broked up with me too


bridge:
F         Am            G           F
she broked when I tried to when I befalled
F                Am               G                       F
whenever time we touch I get this feeling, that's not for me


outro:
Am            C             F              G
she broked my heart and you broked my life too
Am     C               F                 G
she is bad because she broked up with me too
Tap to rate this tab
# A B C D E F G H I J K L M N O P Q R S T U V W X Y Z