Song name
# A B C D E F G H I J K L M N O P Q R S T U V W X Y Z

A Wilhelm Scream - Famous Friends And Fashion Drunks tab

Artist: A Wilhelm Scream
Track: Famous Friends and Fashion Drunks
Album: Mute Print
Released: 2004
Label: Nitro

Key:
|---| ~ this is a section which is palm muted
h ~ hammer on
~ ~ let note ring
p ~ pull off
/ ~ slide from the note before the slash to the note after it unless theres no number to 
to, in which case just slide down the neck from the first number
CODE


0:00
e--------------------------------------------------------|
B--------------------------------------------------------|
G-3-3-3~---------------3-3-3~----------------------------|
D-3-3-3~-0-0-0~-1-1-1~-3-3-3~-0-0-0~-1-1-1~--------------|
A-1-1-1~-0-0-0~-1-1-1~-1-1-1~-0-0-0~-1-1-1~--------------|
D--------0-0-0~-1-1-1~--------0-0-0~-1-1-1~--------------|

0:07
Lead
e-----------------------------------------------------------------------------------------------|
B-----------------------------------------------------------------------------------------------|
G-10-10--10-10-10-10--10-10-10-10--10-10-10-7-12-10--10-10-10-10--10-10-10-10--10-10-10-7-10-3--|
D-x--x---x--x--x--x---x--x--x--x---x--x--x--x-x--x---x--x--x--x---x--x--x--x---x--x--x--x-x--x--|
A-8--8---8--8--8--8---8--8--8--8---8--8--8--5-10-8---8--8--8--8---8--8--8--8---8--8--8--5-8--1--|
D-----------------------------------------------------------------------------------------------|

0:07
Rhythm - repeat 2x
e--------------------------------------------------------|
B--------------------------------------------------------|
G-3-3--3-3-3---------------------------------------------|
D-3-3--3-3-3--0-0--0-0-0-1--1-1-1-1-1--1-1-1-1-1---------|
A-1-1--1-1-1--0-0--0-0-0-1--1-1-1-1-1--1-1-1-1-1---------|
D-------------0-0--0-0-0-1--1-1-1-1-1--1-1-1-1-1---------|

0:15
e---------------------------------------------------------|
B---------------------------------------------------------|
G-3-3--3-3-3----------------------------------------------|
D-3-3--3-3-3--0-0--0-0-0-1--1-1-1-1-1--1-1-1-1-1----------|
A-1-1--1-1-1--0-0--0-0-0-1--1-1-1-1-1--1-1-1-1-1----------|
D-------------0-0--0-0-0-1--1-1-1-1-1--1-1-1-1-1----------|
                          |-------------------------------|
0:21 - Repeat 2x
e----------------------------------------------------------------------|
B----------------------------------------------------------------------|
G----------------------------------------------------------------------|
D-5-5--5-5-5-5--5-5-5-5-5-5-5-5--5-5-5-5-5--1-1--1-1-1-1-1-1-1-1-1-1---|
A-5-5--5-5-5-5--5-5-5-5-5-5-5-5--5-5-5-5-5--1-1--1-1-1-1-1-1-1-1-1-1---|
D-5-5--5-5-5-5--5-5-5-5-5-5-5-5--5-5-5-5-5--1-1--1-1-1-1-1-1-1-1-1-1---|

0:35
Lead
e-----------------------------------------------------------------------------------------------|
B-----------------------------------------------------------------------------------------------|
G-10-10--10-10-10-10--10-10-10-10--10-10-10-7-12-15-15--15-15-15-14-14--14-14-14-12-14-12-10-7--|
D-x--x---x--x--x--x---x--x--x--x---x--x--x--x-x--x--x---x--x--x--x--x---x--x--x--x--x--x--x--x--|
A-8--8---8--8--8--8---8--8--8--8---8--8--8--5-10-13-13--13-13-13-12-12--12-12-12-10-12-10-8--5--|
D-----------------------------------------------------------------------------------------------|

0:35
Rhythm - repeat 2x - on second repeat play the extra 3 chords here
e-------------------------------------------------|-------|
B-------------------------------------------------|-------|
G-3-3--3-3-3--------------------------------------|3-3-3~-|
D-3-3--3-3-3--0-0--0-0-0-1--1-1-1-1-1--1-1-1-1-1--|3-3-3~-|
A-1-1--1-1-1--0-0--0-0-0-1--1-1-1-1-1--1-1-1-1-1--|1-1-1~-|
D-------------0-0--0-0-0-1--1-1-1-1-1--1-1-1-1-1--|-------|

0:48 - Repeat 2x
e----------------------------------------------------------------------|
B----------------------------------------------------------------------|
G----------------------------------------------------------------------|
D-5-5--5-5-5-5--5-5-5-5-5-5-5-5--5-5-5-5-5--1-1--1-1-1-1-1-1-1-1-1-1---|
A-5-5--5-5-5-5--5-5-5-5-5-5-5-5--5-5-5-5-5--1-1--1-1-1-1-1-1-1-1-1-1---|
D-5-5--5-5-5-5--5-5-5-5-5-5-5-5--5-5-5-5-5--1-1--1-1-1-1-1-1-1-1-1-1---|

1:02
e-------------------------------------------------------------|
B-------------------------------------------------------------|
G-5-5-5-5-5-5-5-5-5-5-----------------------------------------|
D-5-5-5-5-5-5-5-5-5-5-5-5-5-5-5-5-5-5-5-6-6-6-6-6-6-6-6-6-6-6-|
A-3-3-3-3-3-3-3-3-3-3-5-5-5-5-5-5-5-5-5-6-6-6-6-6-6-6-6-6-6-6-|
D---------------------5-5-5-5-5-5-5-5-5-6-6-6-6-6-6-6-6-6-6-6-|

1:09
e---------------------------------------------------------|
B---------------------------------------------------------|
G-5--5-5--5-5-5-------------------------------------------|
D-5--5-5--5-5-5-5--5-5--5-5-5-6--6-6--6-6-6--6-6-6--6-6-6-|
A-3--3-3--3-3-3-5--5-5--5-5-5-6--6-6--6-6-6--6-6-6--6-6-6-|
D---------------5--5-5--5-5-5-6--6-6--6-6-6--6-6-6--6-6-6-|

1:16 - Repeat twice, first time fast picking whilst muted. second time slower and normal
(frequency of each chord is inaccurate, listen for timing)
e--------------------------------------------------------------------------|
B--------------------------------------------------------------------------|
G-5-5-5-5-5-5-5-3-3-3-3-3-3-3----------------------------------------------|
D-5-5-5-5-5-5-5-3-3-3-3-3-3-3-6-6-6-6-6-6-6-6-3-3-3-3-3-3-3-3-3-3----------|
A-3-3-3-3-3-3-3-1-1-1-1-1-1-1-6-6-6-6-6-6-6-6-3-3-3-3-3-3-3-3-3-3----------|
D-----------------------------6-6-6-6-6-6-6-6-3-3-3-3-3-3-3-3-3-3----------|

1:43
e-------------------------------------------------------------------------------------|
B-----------------------------------------------------------9-8-----------------------|
G------8h10p8--------------8h10p8-------------8h10p8------------10-8-------------8-8~-|
D-8h10--------10p8~---8h10--------10p8~--8h10--------10p8~-----------10-8~--8h10------|
A-------------------------------------------------------------------------------------|
D-------------------------------------------------------------------------------------|

1:56 Repeat 10x, on 10th repeat, add bracketed notes
e-----------------------|
B-9-8-------------------|
G-----10-8--------------|
D-----------10-(8-10)---|
A-----------------------|
D-----------------------|

2:03 Repeat 10x, on 10th repeat, add bracketed notes
e-----------------------|
B-9-8-------------------|
G-----10-8--------------|
D-----------10-(8-10)---|
A-----------------------|
D-----------------------|

2:09 Repeat 10x, on 10th repeat, add bracketed notes
e-----------------------|
B-9-8-------------------|
G-----10-8--------------|
D-----------10-(8-10)---|
A-----------------------|
D-----------------------|

2:16 Repeat 10x, on 10th repeat, add bracketed notes
e-----------------------|
B-9-8-------------------|
G-----10-8--------------|
D-----------10-(8-10)---|
A-----------------------|
D-----------------------|

1:56 Repeat 10x, on 10th repeat, add bracketed notes
e-----------------------|
B-9-8-------------------|
G-----10-8--------------|
D-----------10-(8-10)---|
A-----------------------|
D-----------------------|

2:22
e------------|
B------------|
G-5-5-5--5\--|
D-5-5-5--5\--|
A-3-3-3--3\--|
D------------|
|-----|
Tap to rate this tab
# A B C D E F G H I J K L M N O P Q R S T U V W X Y Z