Song name
# A B C D E F G H I J K L M N O P Q R S T U V W X Y Z

A Wilhelm Scream - Me Vs Morrisey In The Pretentiousness Contest The Ladder Match tab

Artist: A Wilhelm Scream
Track: Me Vs. Morrisey In The Pretentiousness Contest (The Ladder Match)
Album: Ruiner
Released: 2005
Label: Nitro Records

Key:
|---| ~ this is a section which is palm muted
  h   ~ hammer on
  ~   ~ let note ring
  p   ~ pull off
  /   ~ slide from the note before the slash to the note after it unless theres no number to slide
        to, in which case just slide down the neck from the first number..
  ^   ~ bend

0:00
e---------------------------------------------|
B---------------------------------------------|
G-6-6--6-6-6-6-6---9-9-9----------------------|
D-6-6--6-6-6-6-6-4-9-9-9-7-7--7-7-7-4---------|
A-4-4--4-4-4-4-4-4-7-7-6-7-7--7-7-7-4---------|
D----------------4-------7-7--7-7-7-4---------|

0:04
Rhythm
Repeat 2x
e---------------------------------------------|
B---------------------------------------------|
G-6-6--6-6-6--6-6-6--6-6-6-9-9-9--------------|
D-6-6--6-6-6--6-6-6--6-6-6-9-9-9-7-7-7-7-7-4--|
A-4-4--4-4-4--4-4-4--4-4-4-7-7-6-7-7-7-7-7-4--|
D--------------------------------7-7-7-7-7-4--|

0:08 & 0:12
Lead
e--------------------------|
B--------------------------|
G------8h9p8-6h8p6---------|
D--------------------------|
A--------------------------|
D--------------------------|

0:13
e-------------------------------------|
B-------------------------------------|
G-2-2-2-2-2-2-2-2---------------------|
D-2-2-2-2-2-2-2-2-2-2-2-2-4--4--4-4-4-|
A-0-0-0-0-0-0-0-0-2-2-2-2-4--4--4-4-4-|
D-----------------2-2-2-2-4--4--4-4-4-|

0:17                                  repeat this note til next line starts
e--------------------------------------------------|---|
B--------------------------------------------------|---|
G-2-2--2-2-2--2-2-2--2-2-2--2-2-2-----------6-6-6-6|---|
D-2-2--2-2-2--2-2-2--2-2-2--2-2-2-x-2-x-4-x-6-6-6-6|-5-|
A-0-0--0-0-0--0-0-0--0-0-0--0-0-0-x-2-x-4-x-4-4-4-4|-5-|
D---------------------------------x-2-x-4-x--------|-5-|


0:26
e--------------------------------------------|
B--------------------------------------------|
G-6-----4-------6----4-------6----4--------6-|
D-6-----4-0-2-4-6----4-0-2-4-6----4--0-2-4-6-|
A-4-----2-0-2-4-4----2-0-2-4-4----2--0-2-4-4-|
D---------0-2-4--------0-2-4---------0-2-4---|

0:35
Rhythm
Repeat 2x
e---------------------------------------------|
B---------------------------------------------|
G-6-6--6-6-6--6-6-6--6-6-6-9-9-9--------------|
D-6-6--6-6-6--6-6-6--6-6-6-9-9-9-7-7-7-7-7-4--|
A-4-4--4-4-4--4-4-4--4-4-4-7-7-6-7-7-7-7-7-4--|
D--------------------------------7-7-7-7-7-4--|

0:38 & 0:42
Lead
e--------------------------|
B--------------------------|
G------8h9p8-6h8p6---------|
D--------------------------|
A--------------------------|
D--------------------------|

0:43
e-------------------------------------|
B-------------------------------------|
G-2-2-2-2-2-2-2-2---------------------|
D-2-2-2-2-2-2-2-2-2-2-2-2-4--4--4-4-4-|
A-0-0-0-0-0-0-0-0-2-2-2-2-4--4--4-4-4-|
D-----------------2-2-2-2-4--4--4-4-4-|

0:48                                  repeat this note til next line starts
e--------------------------------------------------|---|
B--------------------------------------------------|---|
G-2-2--2-2-2--2-2-2--2-2-2--2-2-2-----------6-6-6-6|---|
D-2-2--2-2-2--2-2-2--2-2-2--2-2-2-x-2-x-4-x-6-6-6-6|-5-|
A-0-0--0-0-0--0-0-0--0-0-0--0-0-0-x-2-x-4-x-4-4-4-4|-5-|
D---------------------------------x-2-x-4-x--------|-5-|

0:57
e--------------------------------------------|
B--------------------------------------------|
G-6-----4-------6----4-------6----4--------6-|
D-6-----4-0-2-4-6----4-0-2-4-6----4--0-2-4-6-|
A-4-----2-0-2-4-4----2-0-2-4-4----2--0-2-4-4-|
D---------0-2-4--------0-2-4---------0-2-4---|

1:05
Rhythm
e----------------------------|
B----------------------------|
G-6-6-6-4------9-9-9-8-------|
D---------6-6~---------7-7~--|
A----------------------------|
D----------------------------|

1:05
Lead
e-----------------------------------|
B-10-10-10-9-------12-12-12-10------|
G------------6-6~--------------8-8~-|
D-----------------------------------|
A-----------------------------------|
D-----------------------------------|

1:10
Rhythm
e-------------------------------------------------------------|
B-11-11-11-9-9-9-------------------------9-9-9----------------|
G----------------11-11-11-9-9-9-11-11-11-------11-11-11-9-9-9-|
D-------------------------------------------------------------|
A-------------------------------------------------------------|
D-------------------------------------------------------------|

1:10
Lead
e-9-9-9-7-7-7-5-5-5-4-4-4-5-5-5-7-7-7-5-5-5-4-|
B---------------------------------------------|
G---------------------------------------------|
D---------------------------------------------|
A---------------------------------------------|
D---------------------------------------------|

1:12
Rhythm
e------------------------------------------------------------------------|
B-11-9-11^-11^-10~-------------------------------------------------------|
G--------------------10-7-7-9-7-7-10-7-7-9-7-7-10-7-7-9-7-7-10-7-7-9-7-7-|
D------------------------------------------------------------------------|
A------------------------------------------------------------------------|
D------------------------------------------------------------------------|

1:12
Lead
e-9-7-9-11^-11^-9------------------------------------------------------|
B------------------11-8-8-9-8-8-11-8-8-9-8-8-11-8-8-9-8-8-11-8-8-9-8-8-|
G----------------------------------------------------------------------|
D----------------------------------------------------------------------|
A----------------------------------------------------------------------|
D----------------------------------------------------------------------|

1:16
Rhythm
e------------------------------------------------12----12-----12^--12~-|
B----------------------9----9-10--9-10-12-10--14----14----14-----------|
G-9-8-------------9-11---11--------------------------------------------|
D-----11-9-11-7--------------------------------------------------------|
A----------------------------------------------------------------------|
D----------------------------------------------------------------------|

1:16
Lead
e---------------------------------------9----9---9----11^-9-|
B-9-7-5-4-5----2-4-5-4-5-7--5-7-9-7--11---11---11--11-------|
G-----------6-----------------------------------------------|
D-----------------------------------------------------------|
A-----------------------------------------------------------|
D-----------------------------------------------------------|

1:24
Rhythm
e-------------|
B-------------|
G-------------|
D-9~-7~-5~-4~-|
A-------------|
D-------------|

1:24
Lead
e--------------|
B--------------|
G--------------|
D-10~-9~-7~-5~-|
A--------------|
D--------------|

1:27
e--------------------------------------------|
B--------------------------------------------|
G-6-----4-------6----4-------6----4--------6-|
D-6-----4-0-2-4-6----4-0-2-4-6----4--0-2-4-6-|
A-4-----2-0-2-4-4----2-0-2-4-4----2--0-2-4-4-|
D---------0-2-4--------0-2-4---------0-2-4---|

1:34
Rhythm
e------------------------------------------|
B-9h10p9-9h10p9-7h9p7-7h9p7-5h7p5-5h7p5-4~-|
G------------------------------------------|
D------------------------------------------|
A------------------------------------------|
D------------------------------------------|

1:34
Lead
e-7h9p7-7h9p7-5h7p5-5h7p5-4h5p4-4h5p4-2~-|
B----------------------------------------|
G----------------------------------------|
D----------------------------------------|
A----------------------------------------|
D----------------------------------------|

1:36
e-----------------------------------------------|
B-----------------------------------------------|
G-2--2-2-2-2-2-2-2-2-2-2-2-6-x-9-x-2-2-2-2-2-2--|
D-2--2-2-2-2-2-2-2-2-2-2-2-6-x-9-x-2-2-2-2-2-2--|
A-0--0-0-0-0-0-0-0-0-0-0-0-4-x-7-x-0-0-0-0-0-0--|
D-----------------------------------------------|

1:41
e--------------|
B--------------|
G-----4-6-6\---|
D-2-4-4-6-6\---|
A-2-4-2-4-4\---|
D-2-4----------|
Tap to rate this tab
# A B C D E F G H I J K L M N O P Q R S T U V W X Y Z