Song name
# A B C D E F G H I J K L M N O P Q R S T U V W X Y Z

A Year To Remember - Bombs tab

----------------------------------------------------------------------------
			     BOMBS - A Year To Remember
----------------------------------------------------------------------------
A YEAR TO REMEMBER: 

http://www.boomtownrecords.com.au/bands/a-year-to-remember/

Tabbed by: Jordan C

Email: j_little_legend@hotmail.com

Tuning: Eb Ab Db Gb Bb Eb (Half-Step Down)

                              VERSE 1 (0:00)
             eb|--------------------------------------|\
             Bb|--------------------------------------| \  
             Gb|--2-2-x-x-4-4-x-x-6-6-x-x-9-9-x-x-----|   Do This 8 Times
             Db|--2-2-x-x-4-4-x-x-6-6-x-x-9-9-x-x-----|        ( X8 )
             Ab|--0-0-x-x-2-2-x-x-4-4-x-x-7-7-x-x-----| /
             Eb|--------------------------------------|/


                              CHORUS (0:27)

             eb|--------------------------------------|\
             Bb|--------------------------------------| \
             Gb|-----------2--------6---------4-------|   2 Times
             Db|--2--(X16)-2--(X16)-6--(X16)--4-(X16)-|     ( X2 )
             Ab|--2--------0--------4---------2-------| /
             Eb|--0-----------------------------------|/


                           POST-CHORUS (0:55)

                    eb|--------------------------|\
                    Bb|-------------(9-7-5-7-5)--| \  
                    Gb|--2-2--6-6-4--------------|   4 Times
                    Db|--2-2--6-6-4--6-4-2-4-2---|    ( X4 )
                    Ab|--0-0--4-4-2--------------| /
                    Eb|--------------------------|/


                                VERSE 2 (1:08)
             eb|--------------------------------------|\
             Bb|--------------------------------------| \  
             Gb|--2-2-x-x-4-4-x-x-6-6-x-x-9-9-x-x-----|   6 Times
             Db|--2-2-x-x-4-4-x-x-6-6-x-x-9-9-x-x-----|    ( X6 )
             Ab|--0-0-x-x-2-2-x-x-4-4-x-x-7-7-x-x-----| /
             Eb|--------------------------------------|/

                              CHORUS (0:27)

             eb|--------------------------------------|\
             Bb|--------------------------------------| \
             Gb|-----------2--------6---------4-------|   2 Times
             Db|--2--(X16)-2--(X16)-6--(X16)--4-(X16)-|     ( X2 )
             Ab|--2--------0--------4---------2-------| /
             Eb|--0-----------------------------------|/

                           POST-CHORUS (1:56)

                    eb|--------------------------|\
                    Bb|-------------(9-7-5-7-5)--| \  
                    Gb|--2-2--6-6-4--------------|   4 Times
                    Db|--2-2--4-4-4--6-4-2-4-2---|    ( X4 )
                    Ab|--0-0--4-4-2--------------| /
                    Eb|--------------------------|/

                             BRIDGE (2:10)

             eb|--------------------------------------|\
             Bb|--------------------------------------| \
             Gb|--2--------6--------4-----------------|   4 Times
             Db|--2--(X8)--6--(X8)--4--(X16)----------|     ( X4 )
             Ab|--0--------4--------2-----------------| /
             Eb|--------------------------------------|/   *Palm Mutes
                  *        *        *                      
                              
                         FINAL CHORUS (2:44)

             eb|--------------------------------------|\
             Bb|--------------------------------------| \
             Gb|---------2-2------6---------4---------|  \ 
             Db|--2-2----2-2------6--(X16)--4-(X16)---|   \
             Ab|--2-2----0-0------4---------2---------|    \
             Eb|--0-0---------------------------------|      
                                                            JUST ONCE!

             eb|--------------------------------------|
             Bb|--------------------------------------|    /
             Gb|----------2-------6-------4-----------|   /
             Db|--2-(X16)-2-(X16)-6-(X16)-4-(X16)-----|  /
             Ab|--2-------0-------4-------2-----------| /
             Eb|--0-----------------------------------|/

                              OUTRO (3:12)

                    eb|--------------------------|\
                    Bb|-------------(9-7-5-7-5)--| \  
                    Gb|--2-2--6-6-4--------------|   4 Times
                    Db|--2-2--4-4-4--6-4-2-4-2---|    ( X4 )
                    Ab|--0-0--4-4-2--------------| /
                    Eb|--------------------------|/




It's 2:49 AM, and I am ready for bed. Night Ya'll





| /  slide up
| \  slide down
| h  hammer-on
| p  pull-off
| ~  vibrato
| +  harmonic
| x  Mute note
============================================================================
Tap to rate this tab
# A B C D E F G H I J K L M N O P Q R S T U V W X Y Z