Song name
# A B C D E F G H I J K L M N O P Q R S T U V W X Y Z

A - The Distance tab

Artist: A
Song: The Distance
Album: Hi-Fi Serious
Tuning: Drop D (DADGBe)

Not much to learn in this one - this is everything (except solo im afraid)

INTRO/VERSE 1
e|------|---------------------------------|
B|------|-1-1-----1---1---1-1-----1-------|
G|------|-----0-0---0---0-----0-0---0-----|
D|----0-|---------------------------------|
A|--3/0-|------------------------------0--|
D|--3/0-|---------------------------------|

e|----------------------------------------|
B|----------------------------------------|
G|----------------------------------------|
D|--0--10-10-0-10-12---0--13-13-0-13-15---|
A|--0--10-10-0-10-12---0--13-13-0-13-15---|
D|--0--10-10-0-10-12---0--13-13-0-13-15---|

VERSE 2
e|-----------|--------------------------------------|
B|-----------|--------------------------------------|
G|-----------|--------------------7-7-7-7--5-5-5-5--|
D|--5-5-5-5--|--2-2-2-2--5-5-5-5--7-7-7-7--5-5-5-5--|
A|--5-5-5-5--|--2-2-2-2--5-5-5-5--5-5-5-5--3-3-3-3--|
D|--5-5-5-5--|--2-2-2-2--5-5-5-5--------------------|

second time through at the end do this:
e|-----------------------------------|
B|--2-2-2-2--3-3-3-3--2-2-2-2--------|
G|--2-2-2-2--2-2-2-2--2-2-2-2--------|
D|--2-2-2-2--2-2-2-2--2-2-2-2--------|
A|--0-0-0-0--0-0-0-0--0-0-0-0--------|
D|-----------------------------------|

CHORUS
I cant tab out the 'feel' of this bit but you get the idea - just funk it up a bit!
e|-------------------------------------------------|
B|--7-7----7----7---7---7-----8----8---8--8---8-8--|
G|--7-7----7----7---7---7-----7----7---7--7---7-7--|
D|-------0----0---0---0------0---0---0---0---0-----|
A|-------------------------------------------------|
D|-------------------------------------------------|

e|-------------------------------------------------|
B|--5-5---5---5---5-----8-8---8---8---7---7---7----|
G|--7-7---7---7---7-----7-7---7---7---7---7---7----|
D|------0---0---0------0----0---0----0---0---0-----|
A|-------------------------------------------------|
D|-------------------------------------------------|

Theres a mental solo with wah that I simply cant figure out, otherwise all there!

Cheers
Tap to rate this tab
 
# A B C D E F G H I J K L M N O P Q R S T U V W X Y Z