Song name
# A B C D E F G H I J K L M N O P Q R S T U V W X Y Z

A - Hi-fi Serious tab

Artist: A
Song: Hi-Fi Serious
Album: Hi-Fi Serious
Tuning: Standard (EADGBe)

Really simple song so I wont go into much detail with it, just some palm mutes 
here and there and thats about it - Enjoy!

VERSE
e|-------------------------------------|
B|-------------------------------------|
G|--5-5-5-5----------------------------|
D|--5-5-5-5--5-5-5-5--2-2-2-2-2-2-2-2--|
A|--3-3-3-3--5-5-5-5--2-2-2-2-2-2-2-2--|
E|-----------3-3-3-3--0-0-0-0-0-0-0-0--|

BRIDGE 1
e|------------------|
B|------------------|
G|--4-4-4-4---------|
D|--4-4-4-4---------|
A|--2-2-2-2---------|
E|------------------|

CHORUS
e|---------------------------------------|
B|---------------------------------------|
G|--4/9-9-9-9-9---4/9-9-9-9-9------------|
D|--4/9-9-9-9-9---4/9-9-9-9-9------------|
A|--2/7-7-7-7-7---2/7-7-7-7-7------------|
E|---------------------------------------|

e|---------------------------------------|
B|---------------------------------------|
G|--4/7-7-7-7-7---4/7-7-7-7-7---7-7-7-7--|
D|--4/7-7-7-7-7---4/7-7-7-7-7---7-7-7-7--|
A|--2/5-5-5-5-5---2/5-5-5-5-5---5-5-5-5--|
E|---------------------------------------|

BRIDGE 2 (1:27)
e|-----0----------------0--------------|
B|----------------------0--------------|
G|-------------------3-----------------|
D|----------------4--------------------|
A|--4-------------4--------------------|
E|--------5-------2--------------------|

e|-----------------------------------------------------------|
B|-----------------------------------------------------------|
G|--6-x-x-6-x-x-2-x-x-2-x-2-2-x------------------------------|
D|--6-x-x-6-x-x-2-x-x-2-x-2-2-x-4-x-x-4-4-x-4----------------|
A|--4-x-x-4-x-x-0-x-x-0-x-0-0-x-4-x-x-4-4-x-4----------------|
E|------------------------------2-x-x-2-2-x-2--0-2-0-2-0-----|

Then abruptly back into verse/chorus etc

OUTRO
You just need to know these few basic sections and they change slightly in parts - 
listen to song if you want to be exact:
e|------0---2--0----------0---2--0------|
B|----0---0------0------0--0-------0----|
G|--------------------------------------|
D|--2-----------------2-----------------|
A|--------------------------------------|
E|--------------------------------------|

e|------0---0-----------0---0------------|
B|---------------------------------------|
G|--4/7---6---4----4/7---6----4---1/2/4--|
D|---------------------------------------|
A|---------------------------------------|
E|---------------------------------------|

Harmonics sliding over the top at a few points:
e|---------------------------------------|
B|---------------------------------------|
G|---------------------------------------|
D|---------------------------------------|
A|---------------------------------------|
E|--2-2-3-3-4-4-5-5-7-7-5-5-4-4-3-3-2-2--|

Awesome bit:
e|------0--0---------0--0-----0--0-----|
B|--3h5--5--5----3h5--5--5--8--8-------|
G|-------------------------------------|
D|-------------------------------------|
A|-------------------------------------|
E|-------------------------------------|

e|-----------------------3-3-3-3-------|
B|-----------------------2-2-2-2-------|
G|---------------9-9-9---0-0-0-0-------|
D|--2-x-2-x-2-x--9-9-9---0-0-0-0-------|
A|--2-x-2-x-2-x--7-7-7-----------------|
E|--0-x-0-x-0-x------------------------|

Thats the lot!
Tap to rate this tab
# A B C D E F G H I J K L M N O P Q R S T U V W X Y Z