Guitaretab - guitar tabs
Song name
# A B C D E F G H I J K L M N O P Q R S T U V W X Y Z

A - Shut Yer Face tab

-------------------------------------------------------------------------------
			     SHUT YER FACE - A
-------------------------------------------------------------------------------
Tabbed by: Ali Hendrix

I thought I tab out I know, because there isnt any tabs for shut yer face yet, and it is a good song. 


Drop D Tuning (DADGBE)
[ Tab from: http://www.guitaretab.com/a/a/61850.html ]
Intro/ Main Riff
 e|-------------------|-----------------|-----------------|----------|
 B|-------------------|-----------------|-----------------|-3-3--3---|
 G|-----------7-7p6h7-|-----------------|---------7-7p6h7-|-2-2--0---|
 D|-------6\4---------|-----6-4---------|-----6\4---------|-0-0--2---|
 A|---2---------------|-2-------0---0-0-|-2---------------|-0-0--3---|
 D|---2---------------|-2-------0---0-0-|-2---------------|-0-0--0---|

Play twice

Verse:
      E5
 e|-------------------|
 B|-------------------|
 G|-------------------|
 D|-------------------|
 A|---2---2-2---2---2-|
 D|---2---2-2---2---2-|
pm------|       |--------

   So come out fighting etc.
Related for Shut Yer Face tab
Advertisement will be closed in 10 seconds