Guitaretab - guitar tabs
Song name
# A B C D E F G H I J K L M N O P Q R S T U V W X Y Z
Home / A / A / All Over tab

A - All Over tab

-------------------------------------------------------------------------------
			 All Over - A
-------------------------------------------------------------------------------
Tabbed by:t00re
Email:i_love_beth.s@hotmail.com

Tuning:Standard

Intro
e|---------------------------------|
B|---------------------------------|
G|---------------------------------|
D|-7-7-9-9-10-10-12-13-------------| x2
A|--0-0-0-0--0--0--0--0------------|
E|---------------------------------|

Verse 1
e|---------------------------------------------|
B|---------------------------------------------|
G|---------------------------------------------|
D|-9-9-9-9-9-9-9-9--11-11-11--12-12-12--7-7----| x4
A|-7-7-7-7-7-7-7-7--9--9--9---10-10-10--5-5----|
E|---------------------------------------------|

Chorus
e|--------------------|
B|---6-7-9-7~---------|
G|--------------------|
D|--------------------| x2
A|--------------------|
E|--------------------|
[ Tab from: http://www.guitaretab.com/a/a/74087.html ]
Verse 2
e|---------------------------------------------|
B|---------------------------------------------|
G|---------------------------------------------|
D|-9-9-9-9-9-9-9-9--11-11-11--12-12-12--7-7----| x4
A|-7-7-7-7-7-7-7-7--9--9--9---10-10-10--5-5----|
E|---------------------------------------------|

Chorus
e|--------------------|
B|---6-7-9-7~---------|
G|--------------------|
D|--------------------| x2
A|--------------------|
E|--------------------|

solo
e|-----------------5-7-5-6-7-8-6-6~---|
B|-8-5-7-8-6-9-7-8---------------7~---|
G|------------------------------------|
D|------------------------------------|
A|------------------------------------|
E|------------------------------------|

Verse 3
e|---------------------------------------------|
B|---------------------------------------------|
G|---------------------------------------------|
D|-9-9-9-9-9-9-9-9--11-11-11--12-12-12--7-7----| x4
A|-7-7-7-7-7-7-7-7--9--9--9---10-10-10--5-5----|
E|---------------------------------------------|

Outro
e|---------------------------|
B|---------------------------|
G|---------------------------|
D|---------------------------| x1
A|-----4-6~~~~~~~~-----------|
E|-4-6-----------------------|


| /  slide up
| \  slide down
| h  hammer-on
| p  pull-off
| ~  vibrato
| +  harmonic
| x  Mute note
===============================================================================
Related for All Over tab