Song name
# A B C D E F G H I J K L M N O P Q R S T U V W X Y Z

A - You Know It tab

ARC ANGEL: YOU KNOW IT

By. Rory Kellaway

Play the intro fairly fast and the verse riff slightly slower then the first intro riff.

Intro

E|--------------------------------------|
B|--------------------------------------|
G|--------------------------------------|
D|-10-10--9-9-9-9-----------------------|    X2
A|-8--8---7-7-7-7-9-9-9-10-10-10-10-----|
D|----------------7-7-7-8--8--8--8------|

Verse riff

E|--------------------------------------|
B|--------------------------------------|
G|--------------------------------------|
D|-4-4-4-4-4-4-4-4----------------------|       X3
A|-2-2-2-2-2-2-2-2-4-4-4-5-5-5-5--------|
D|-----------------2-2-2-3-3-3-3--------|
Tap to rate this tab
# A B C D E F G H I J K L M N O P Q R S T U V W X Y Z