Song name
# A B C D E F G H I J K L M N O P Q R S T U V W X Y Z

A1 - Still Around tab

-------------------------------------------------------------------------------
			     Still Around - A1(intro)
-------------------------------------------------------------------------------
Tabbed by:Kr15t1n

Tuning:Standard

e|------------------3------------------|
B|---------1-----1-----1-----1---------|
G|------0-----4-----------4------------|  x2
D|-------------------------------------|
A|---3---------------------------------|
E|-------------------------------------|
Tap to rate this tab
 
# A B C D E F G H I J K L M N O P Q R S T U V W X Y Z