Song name
# A B C D E F G H I J K L M N O P Q R S T U V W X Y Z

A1 - One Last Song tab

Song       :One Last Song
Artist     :A1
Tabbed by  :Kenneth Lineses
Tuning     :Standard

This is my first tab hope you enjoy its very easy.

 INTRO:

E|------8-7----3-----3-3------8-7----3-----3-3---------------|
B|-----------------1---------------------1-------------------|
G|---------------0-------0-------------0-------2-------------|
D|-----------------------------------------------------------|
A|-------------3-------3-------------3-------3---------------|
E|-----------------------------------------------------------|

E|------8-7----8--------------7-3-----------1----------------|
B|----------------------------------------1------------------|
G|-------------------5------------------2--------------------|
D|-----------------7------------------3----------------------|
A|---------------7-----5-------------------------------------|
E|-------------5-----3---------------------------------------|

E|----------3-0-------1------------0-------------------------|
B|------------------1----------------1-----------------------|
G|--------2-------2------------------------------------------|
D|------2-------0----------------2---------------------------|
A|-----------------------------3-----------------------------|
E|-----------------------------------------------------------|

E|------------------1---------------------------------------|
B|--------------1-0-----------------------------------------|
G|--------------0-0-----------------------------------------|
D|----------0-----------------------------------------------|
A|--------2-------------------------------------------------|
E|------3-------3-3-----------------------------------------|

    That's all if you have a comments,questions and suggestions just send me a message 
in my facebook account (Ken_virgo07@yahoo.com)or text me (09339197772). Thank You.
Tap to rate this tab
# A B C D E F G H I J K L M N O P Q R S T U V W X Y Z