Song name
# A B C D E F G H I J K L M N O P Q R S T U V W X Y Z

A1 - When I Have It tab

|-------------------------------------|
|-------------------------------------|
|-------------------------------------|
|-------9----9h10--------8----8h9-----|
|----10---10-----------9----9---------| 2x
|--7----------------5-----------------|

|----------------------------------------------------|
|----------------------------------------------------|
|----12~---10------12h15b17--10-------9-9--10-12--0--|
|------------8--10-------------8---10----------------|
|--------------9-----------------9-------------------|
|----------------------------------------------------|

|-------------------------------------|
|-------------------------------------|
|-------------------------------------|
|-------9----9h10--------8----8h9-----|
|----10---10-----------9----9---------| 3x
|--7----------------5-----------------|


Tap to rate this tab
# A B C D E F G H I J K L M N O P Q R S T U V W X Y Z