Song name
# A B C D E F G H I J K L M N O P Q R S T U V W X Y Z

Aa Bondy - Black Rain Black Rain tab

-------------------------------------------------------------------------------
			     BLACK RAIN BLACK RAIN - AA Bondy
-------------------------------------------------------------------------------
Tabbed by: Dobronyi
Email: dobronyi@hotmail.com

I love this song and can't find any tabs for AA Bondy, so I decided to tab out some 
myself. I promise you this tab is 100% correct. It's just the beginning so far but I hope 
like it.

Tuning: C-A-C-G-C-E
(I know it's weird tuning but I know for a fact it is correct. Tune the low E down to a 
the D down to a C, and the B up to a C)


e|-------------------------|-------------------------|---0----------------------|
B|---0-----------0---------|---0-----------0---------|---------------0----------|
G|---------0-----------0---|---------0-----------0---|---------0-----------0----|
D|------0-----------0------|------0-----------0------|------0-----------0-------|
A|-------------------------|-------------------------|--------------------------|
E|---0--------0------------|---0--------0------------|---0--------0-------------|

e|-------------------------|
B|---0-----------0---------|
G|---------0-----------0---|
D|------0-----------0------|
A|-------------------------|
E|---0--------0------------|


Repeat 2x
e|------------------------------------------------------0------------------------------|
B|---0---------0--------0--------0---------0---------------------0-----------0---------|
G|---------0---------0--------0--------0---------0------------0--------0-----------0---|
D|------0---------0--------0--------0---------0------------0--------0-----------0------|
A|-------------------------------------------------------------------------------------|
E|--/12--------11-------9--------7--------7/9--------9-----------0--------0------------|

e|-----------------------------3-----------------------------------|
B|---0-----0-----2--------2/4-----4---------2/4/2--2-----0---------|
G|---------------------0----------------0----------------------0---|
D|------0-----------0----------0------------0---------0------------|
A|-----------------------------------------------------------------|
E|---0--------0-----------0----------0----------0-----------0------|

e|------------------------0------------------------|
B|---0-----------0-----------0-----------0---------|
G|---------0-----------0-----------0-----------0---|
D|------0-----------0-----------0-----------0------|
A|-------------------------------------------------|
E|---5--------5-----------5-----------5------------|

| /  slide up
| \  slide down
| h  hammer-on
| p  pull-off
| ~  vibrato
| +  harmonic
| x  Mute note
===============================================================================

http://www.superphonicrecords.com/aa_bondy.html
Tap to rate this tab
# A B C D E F G H I J K L M N O P Q R S T U V W X Y Z