Song name
# A B C D E F G H I J K L M N O P Q R S T U V W X Y Z

Aa Bondy - World Without End tab

-------------------------------------------------------------------------------
			     WORLD WITHOUT END - AA Bondy
-------------------------------------------------------------------------------
Tabbed by: dobronyi
Email: dobronyi@hotmail.com

Tuning: Standard
Capo: Second Fret

e|---------------0---------------------------------------------------|
B|---1--------------------1-----------1--------1-----------1---------|
G|---------0-----------0--------0-----------0--------2-----------0---|
D|------2-----------2--------2-----------2--------3-----------0------|
A|---3--------3-----------3--------3---------------------------------|
E|---------------------------------------------1--------3------------|

e|---0h3-------------------------------1--------------------0--------|
B|----------------1--------1--------------------3--------------------|
G|----------0-----------0--------0-----------0--------0-----------0--|
D|-------2-----------2--------2-----------2--------0-----------0-----|
A|---3---------3-----------3--------3-----------2--------2-----------|
E|-------------------------------------------------------------------|

e|----------------0--------------------------------------------------|
B|---0h3-------------------1-----------3--------3b----------1--------|
G|----------0-----------0--------2-----------2--------2-----------2--|
D|-------0-----------0--------2-----------2--------2-----------2-----|
A|---2---------2-----------0--------------------0--------------------|
E|----------------------------------0--------------------0-----------|

e|---------------3-------------------------------|
B|---0--------------------1p0----------0---------|
G|---------0-----------0---------2-----------0---|
D|------0-----------0---------0-----------0------|
A|-----------------------------------------------|
E|---3--------3-----------3---------3------------|

e|-----0---------------------------------0-------|
B|---1-------------1--------3p1------------------|
G|-----------2-----------2---------2-----------2-|
D|--------3-----------3---------3-----------3----|
A|-----------------------------------------------|
E|---1----------1-----------1---------1----------|

e|---------------------------0--1-----0----------|
B|---0-----------0--------3----------------------|
G|---------0-----------0--------------------0----|
D|------0-----------0--------0-----------0-------|
A|-----------------------------------------------|
E|---3--------3-----------3--------3-------------|

e|---------------0-------------------------------|
B|---1--------------------1-----------1----------|
G|---------0-----------0--------0-----------0----|
D|------2-----------2--------2-----------2-------|
A|---3--------3-----------3--------3-------------|
E|-----------------------------------------------|

e|-----------------------------------------------|
B|---1h3----------3--------1-----------1---------|
G|----------0-----------0--------0-----------0---|
D|-------2-----------2--------2-----------2------|
A|---3---------3-----------3--------3------------|
E|-----------------------------------------------|


| /  slide up
| \  slide down
| h  hammer-on
| p  pull-off
| b  bend up
| +  harmonic
| x  Mute note
===============================================================================
Tap to rate this tab
# A B C D E F G H I J K L M N O P Q R S T U V W X Y Z