Song name
# A B C D E F G H I J K L M N O P Q R S T U V W X Y Z

Aa Bondy - When The Devils Loose chords

Highlighted       Show chord diagrams
When the Devil's Loose by AA Bondy

This is the acoustic version of the song AA. Sadly I don’t know the names of the
chords but I gave it shot. Other than that, this is probably 100% correct.

Tuning: CGDGBD


Chords:

                 G
D -----------------------|
B -----------------------|
G -----------------------|
D -----------------------|
G -------7---------------|
C -------7---------------|


                 Em
D -----------------------|
B ---5-------------------|
G -----------------------|
D -----------------------|
G ---4-------------------|
C ---4-------------------|


                  Bb
D --2-------------------|
B --3-------------------|
G --2-------------------|
D --4-------------------|
G --2-------------------|
C --2-------------------|


                 G#
D -----------------------|
B ---3-------------------|
G -----------------------|
D ---2-------------------|
G -----------------------|
C -----------------------|


                (11) Bb
D --11-------------------|
B --12-------------------|
G --11-------------------|
D --13-------------------|
G --11-------------------|
C --11-------------------|


               (7) Bb
D --7-------------------|
B --8-------------------|
G --7-------------------|
D --9-------------------|
G --7-------------------|
C --7-------------------|


[Intro]
G  Em Bb  G#  G


[Verse 1]
G                                       G#
Up with the evening sun, the river rolls on by

Bb                                              G#
The neighbors, they tell secrets, the neighbors they tell lies

G                                                          G#
And somewhere the plane went down, these things they never stop

Bb                                    G#
  G
Somebody feels the knife, and somebody calls the cops


[Chorus]

Em                            G                 G#                 Bb
(and slide to first fret quickly and then quickly to G#)
Oh, The living and the dying how easily you bruise

G#                      Bb                               GG
Oh Delia don't go round when the devils loose.


[Intro]


[Verse 2]
A figure waits in the shadows, someone drowned in the lake
The march of Georgian feet down the highway, razorblades in the cake
These dogs will tear your flesh, you best give them a bone
I see you there and i see your faces and i see you there alone


[Chorus]
The living and the dying how easily you bruise
No Delia don't go round when the devils loose.


[Bridge]
G   (11)Bb   (7)Bb   (11)Bb   G#   Bb   Bb

Riff:
D ----------------------------|
B ----------------------------|
G ----------------------------|
D ----------------------------|
G ---9p7----------------------|
C ---------9p7----------------|       (and then (7)Bb)


[Verse III]
And what does a mirror show you, can you see the grey    (instead of G he use (7)Bb)
Your sadness it is quite lovely, but it is the sadness of a slave
Why don't you give your self a rest, give your self some room
You can't get your arms round everybody, you cannot carry the doom…


[Chorus]
Of the living and the dying how easily you bruise
Oh Delia don't go round when the devils loose.
Tap to rate this tab
# A B C D E F G H I J K L M N O P Q R S T U V W X Y Z