Song name
# A B C D E F G H I J K L M N O P Q R S T U V W X Y Z

Aaabae - Andrew Poindexter Harrison tab

APH tabbed by Dan Eurethra and Pat Magroin
this is a screwed up tuning.......


hey look! i can write with a marker in my nose!
F---88--------------------355------------------|
D-----90----------------------67---------------|
C--------35----------------------98------------|
A-----------567-------489-----------34---------|
B---------------89----------------------68-----|
G------------------45----------------------41--|

( i sound crazy but they have a custom guitar so heres the normal stuff......)

F---21------------------------17---------------|
D-----13-------------------13-----22-----------|
C--------12--------------15----------12--------|
A-----------19----------12--------------1------|
B-------------17b-----15-----------------2-----|
G------------------14---------------------4--6-|
Tap to rate this tab
 
# A B C D E F G H I J K L M N O P Q R S T U V W X Y Z