Song name
# A B C D E F G H I J K L M N O P Q R S T U V W X Y Z

Aakon Keetreh - Dans La Foret Part Ii tab

This music can be broken in 2 parts, the one who Äakon sings and the other he play guitar.

First part : Äakon sings just two notes, D# and E, if you can sings those notes, you can 
sing the first part of this music(i don't know the lyrics, sorry).

Secons part ( guitar ) :

e|-------12---------------------------|
B|12--14-----14-12-10-12-12-10-10-h12-|
G|------------------------------------|
D|------------------------------------|
A|------------------------------------|
E|------------------------------------|

e|-------12-------------------|
B|12--14-----14-12-10---787-5-|
G|--------------------9-------|
D|----------------------------|
A|----------------------------|
E|----------------------------|

e|-------12---------------------------|
B|12--14-----14-12-10-12-12-10-10-h12-|
G|------------------------------------|
D|------------------------------------|
A|------------------------------------|
E|------------------------------------|
                                   2X
e|-------12----------------|--------------------|
B|12--14-----14-12-10---787|-5/8-7-h8-7/10------|
G|--------------------9----|--------------------|
D|-------------------------|--------------------|
A|-------------------------|--------------------|
E|-------------------------|--------------------|

The rest it's just repeat, and the end of the song is B|-12-|

Some parts of this music are played with one octave below simultaneously or the next 
riff played at the same time ( i hope my english is understandable )

:)

Ps.: i'll tab the other songs if  possible.
Tap to rate this tab
 
# A B C D E F G H I J K L M N O P Q R S T U V W X Y Z