Song name
# A B C D E F G H I J K L M N O P Q R S T U V W X Y Z

Aaliyah - One Man Woman tab

-------------------------------------------------------------------------------
                             ONE MAN WOMAN - Aaliyah ft Playa - as played by 
Jeremy Passion & Tori Kelly
-------------------------------------------------------------------------------
Tabbed by: Ndermawan
E-mail: ndermawan@yahoo.com

Tuning:Full step down (E becomes D)

Capo 1



https://www.youtube.com/watch?v=7QKmLFCwGdI <-- video here



The whole song is BASICALLY 4 chords, but can have variations/adlibs that I can't 
really figure out from the video

Strumming/rhythm can be followed from the video, as I'm not that good of a tabber


Tab is UNRELATED TO CAPO so place your fingers where it says


BASIC CHORDS:

e|---------------------------------------------------------------------------|
B|---8---8----7-------7---------6---6----------------------------------------|
G|---8---8----7-----7---7-------6---6---5------------------------------------|
D|---8---8----7---7-------7-----6---5---5------------------------------------|
A|----------------------------------6---6------------------------------------|
E|---8---8----7-----------------6-------4------------------------------------|




INTRO AD LIB                                 This part is relative to capo 
                                             because writing 3134 is dumb

e|-----------------------------------------|-------------------5-------------|
B|---8---8----7-------7---------6---6------|---3--3-----0------3--3----------|
G|---8---8----7-----7---7-------6---6---5--|---2--2--1-----2/5-------5-------|
D|---8---8----7---7-------7-----6---5---5--|---0--0--------------------------|
A|----------------------------------6---6--|---2--2--------------------------|
E|---8---8----7-----------------6-------4--|---------------------------------|

                      and switches back to unrelated to capo (same as earlier)

e|---8-----8-----------------------------------------------------------------|
B|---7-----7---------/6---6--------------------------------------------------|
G|------8----8--pause/6---6---5----------------------------------------------|
D|-------------------/6---5---5----------------------------------------------|
A|------------------------6---6----------------------------------------------|
E|-------------------/6-------4----------------------------------------------|


Feel free to comment and correct me/fill in the gaps! I.e timing and whatnot

Hope it helps


************************************

| /   slide up
| \   slide down
| h   hammer-on
| p   pull-off
| ~   vibrato
| +   harmonic
| x   Mute note
| b   Bend
| pb  Pre-bend
| br  Bend release
| pbr Pre-bend release
| brb Bend release bend

************************************
Tap to rate this tab
# A B C D E F G H I J K L M N O P Q R S T U V W X Y Z