Song name
# A B C D E F G H I J K L M N O P Q R S T U V W X Y Z

Aaron Copland - Fanfare For The Common Man tab

Title:  Fanfare for the Common Man
Composer:  Aaron Copland

Transcribed by:  Robert McCann    robmc503@yahoo.com

I honestly only have the version performed by Emerson Lake and Palmer,
which I believe has the same arrangement, except for maybe some
improvising. The bars where I have a "?" I am not sure if correct, but
it sounds right; if it's not, please correct me. The rest is accurate.
This is a Fantasic Composition, my absolute favorite, enjoy.

Standard Tunning

Very Deliberate
|----------------|------------3--|---------------|----3-------------|
|-----------6----|-----6--4------|--4--------6---|-4-----------3--6-|
|------3---------|--3------------|------3--------|------3---3-------|
|---3------------|---------------|---------------|------------------|
|----------------|---------------|---------------|------------------|
|----------------|---------------|---------------|------------------|

                                   f  quasi Timp.
|----3-----------|---------------|---------------------------------------------|
|-4--------------|--3------------|---------------------------------------------|
|------3---------|---------3-----|-----------------0---------------------------|
|----------------|-----3---------|-----------------1-------1------------1------|
|----------------|---------------|-11111111111---1---1--3--3-3-1-3--1-3-3-3-1-3|
|----------------|---------------|-11111111111---1---1---------1----1-3-----1--|
                                        ?

|-----------|---------------|--15--11---------|--15---6---18--|--5---13---10---|
|---------6-|------6----4---|--11---8--11-----|--11---8---13--|--6---10----6---|
|-----3-----|---3-------0---|-----------8--10-|---------------|----------------|
|--3--------|---------------|---------------8-|---------------|----------------|
|-----------|---------------|-----------------|---------------|----------------|
|-----------|---------------|-----------------|---------------|----------------|

|---------------|---3-----------|----3-----------|----------------|
|--6------------|-4--------3--6-|--4--------3--6-|---3--6---------|
|--3------------|-----3--3------|------3--3------|---------3------|
|---------------|---------------|----------------|----------------|
|----11111-11---|---------------|----------------|----------------|
|----11111-11---|---------------|----------------|----------------|
          ?

|---------------------------------------------|
|---------------------------------------------|
|-----------------0---------------------------|
|-----------------1-------1------------1------|
|-11111111111---1---1--3--3-3-1-3--1-3-3-3-1-3|
|-11111111111---1---1---------1----1-3-----1--|
                           ?

|-----------|-------------|---------------------|
|---------6-|-------------|-------------------6-|
|-----3-----|-------------|---------------3--3--|
|--3--------|----------3--|----------3--3---3---|
|-----------|---1----1----|---1----1------------|
|-----------|-1----1------|-1----1--------------|

|---------------15-|-11------------|--15-----------|-------13---10--|
|--------6---4--11-|--8---11-------|--11---11--11--|--10---10----6--|
|---3--3-----0-----|-------8---10--|--------8---8--|---7------------|
|-3----------------|------------8--|---------------|----------------|
|------------------|---------------|---------------|----------------|
|------------------|---------------|---------------|----------------|

|----------------|---------------|---------------|----------------|
|----------------|---------------|---------------|----------------|
|--10------13----|--12--10---8---|-----------13--|--12--10---3--2-|
|---8------13----|--12--10---8---|--3--3-----13--|--12--10---5--3-|
|----------11----|--10---8---6---|--1--1-----11--|--10---8---6--5-|
|----------------|---------------|--1--1---------|----------------|

|---------------------------------------------------|
|---------------------------------------------------|
|-3--3--------------0-------------------------------|
|-5--5--------------1-----------1------------1------|
|-6--6--11111111111---1---1--3--3-3-1-3--1-3-3-3-1-3|
|-------11111111111---1---1---------1----1-3-----1--|
                        ?
           f
|-------13----13--11--6|-5--3---------|
|----11----11------8--8|-6--4---6--4--|
|-10------------------8|-5--3---7--5--|
|----------------------|--------7--5--|
|----------------------|--------------|
|----------------------|--------------|

|-------6--5--3-------|------------|-----------4----|-----------4--1-|
|-------8--6--4--6--4-|------------|------4---4---6-|------4---4---2-|
|-------8--5--3--7--5-|------------|--1--1---1----7-|--1--1---1----1-|
|----------------7--5-|------------|-1--1---1-----8-|-1--1---1-----1-|
|-1-1-----------------|---1---1----|----------------|----------------|
|-1-1-----------------|---1---1----|----------------|----------------|

|---5--5-----|---------------|----5--5----|--------------------|
|---6--6-----|---------5---1-|----7--7----|--------------------|
|---5--5-----|------2--6---2-|----7--7----|----7-----7-----7---|
|------------|---2--2--7---3-|------------|---0-----0-----0----|
|------------|--0------------|------------|--5--55-5--55-5-----|
|------------|---------------|------------|--------------------| .... (Fade Out)
Tap to rate this tab
# A B C D E F G H I J K L M N O P Q R S T U V W X Y Z