Song name
# A B C D E F G H I J K L M N O P Q R S T U V W X Y Z

Aaron Fresh - Spending All My Time tab

This is just the chorus but the chords are the same throughout the song. I realized that 
was no tabs out there for this so I decided to post this. This is my first one. Enjoy!

X - open string
/ - slap strings


--------------1---1---/----1-----1---1---1---1---|
--------------1---1---/----1-----1---1---1---1---|
--------------2---2---/----2-----2---2---2---2---|
--------------3---3---/----3-----3---3---3---3---|
--------------3---3---/----3-----3---3---3---3---|
--------------1---1---/----1-----1---1---1---1---|
spending all my time lovin' you all my time lovin' you
from when i wake up to when i lay down

--5---5---/----5-----5---5---5---5---|
--5---x---/----x-----x---x---x---x---|
--5---5---/----5-----5---5---5---5---|
--x---x---/----x-----x---x---x---x---|
--5---5---/----5-----5---5---5---5---|
--x---x---/----x-----x---x---x---x---|
need a few more seconds in my day
all i got is you baby on my brain


--------------5---5---/----5-----5---5---5---5---|
--------------5---5---/----8-----8---8---8---8---|
--------------6---6---/----6-----6---6---6---6---|
--------------7---7---/----7-----7---7---7---7---|
--------------7---7---/----7-----7---7---7---7---|
--------------5---5---/----5-----5---5---5---5---|
spending all my time lovin' you all my time lovin' you
spending all my time lovin' you all my time lovin' you

--5---5---/----5-----5---5---5---5---|
--6---6---/----6-----6---6---6---6---|
--7---7---/----7-----7---7---7---7---|
--7---7---/----7-----7---7---7---7---|
--5---5---/----5-----5---5---5---5---|
--5---5---/----5-----5---5---5---5---|
every minute runnin' away
25 hours in my day
Tap to rate this tab
# A B C D E F G H I J K L M N O P Q R S T U V W X Y Z