Guitaretab - guitar tabs
Song name
# A B C D E F G H I J K L M N O P Q R S T U V W X Y Z

Aaron Lewis - Novacaine Acoustic tab

ok this song is easy to play all u need is these chords and listen to the acoustic 
the vid one youtube!

verse:

<--------3-------|
<---2----2----0--|
<---4----4----4--|
<---4----4----4--|
<---0----0----0--|
<---0----0----0--|

chorus:
[ Tab from: http://www.guitaretab.com/a/aaron-lewis/102657.html ]
check out the strumming by watching the vid! this is my first tab so  if you have any 
just let me know!
<--------3-----0-----3---------------------------------|
<---2----2-----2-----2---------------------------------|
<---4----0-----2-----0---------------------------------|
<---4----0-----0-----0---------------------------------|
<---0----3-----3-----3---------------------------------|
<---0----3-----3-----3---------------------------------|
Related for Novacaine Acoustic tab
Advertisement will be closed in 10 seconds