Guitaretab - guitar tabs
Song name
# A B C D E F G H I J K L M N O P Q R S T U V W X Y Z

Aaron Lewis - Sober Acoustic tab

Aaron Lewis - Sober (acoustic cover)
tabbed by Chexmix

Drop D


The intro same as "breakdown"  and you play this through the song
i'll mark it as Intro everything except for the build.

------------------------------------------------------------------|
------------------------------------------------------------------|
--14------14------14------14------14-12-----12------12------------|
----0-------0--------0--------0-------0---0-------0--------0---0--|
----0-------------------------------------------------------------|
------------------------------------------------------------------|

-------------------------------------------------------------------|
-------------------------------------------------------------------|
-15--------15---------15-------15-----------12-----12-------12h14*-|
------0----------0----------0----------0---------------0--------0*-|
----------------------------------------------------------------0*-|
-------------------------------------------------------------------|
*Starts back at the beginning play 2xs


At the end of the 2nd time after the 0,15 instead of 0,12 play this:
-------------------|--------------------------------------------|
-------------------|--------------------------------------------|
--15-s-17---17---17|--------------------------------------------|
----0------0-----0-|12p---------------13---13----------13----13-|
-------------------|12p-Build slowly--13---13----------13----13-|
-------------------|12p--- release ---13---13----------13----13-|


start of song: "MAIN"  throughout  chords listen for timing
-0-----0----0----0----0----0----0-|
-3-----3----3----3----3----3----3-|
-2-----0----3----0----2----0----3-|
-0-----0----0----0----0----0----0-|
----------------------------------|
----------------------------------|


Full  hold bend       <-----------grad. release bend------------------------|
----------------------------------------------------------------------------|
--10^--10--10--10--10----10----10^---10---10---10---10-10-10-10-10-10-10----|
--12^--12--12--12--12----12----12^---12---12---12---12-12-12-12-12-12-12----|
----------------------------------------------------------------------------|
----------------------------------------------------------------------------|
----------------------------------------------------------------------------|

"MAIN"   Listen for timing-
-0-----0----0----0-----0----0-----0------0--------------------------|
-3-----3----3----3-----3----3-----3-s----5--------------------------|
-2-----0----3----0-----2----0-----3-s----5--------------------------|
-0-----0----0----0-----0----0-----0------0--------------------------|
--------------------------------------------------------------------|
--------------------------------------------------------------------|
Then do the lil Intro part
[ Tab from: http://www.guitaretab.com/a/aaron-lewis/157487.html ]
Then the "Heavy Part" (pre chorus)
-----------------------------------------------------------------------------|
---------15----------16--------------15------------16-----16-----16----16----|
---------14----------15--------------14------------15-----15-----15----15----|
--12*-listen-13*------------12*-------------13*------------------------------|
--12*-for----13*------------12*-------------13*------------------------------|
--12*-timing-13*------------12*-------------13*------------------------------|
*palm mute if you want

Chorus:
---------------------------------------|
--3-----3--------4-----------4---------|
--2-----2--------3-----------3---------|
--0--------------0*--------------------|
--0--------------0*--------------------|
--0--------------0*--------------------|
*try bar the 1 it sounds better

Heres the lil part after the 1st chours (that lil lead part)
----------------------------5------------------------------------------------|
-----------------------------------------------------------------------------|
-2--2--2--3---3^3^3^3^3--2--------2----2----2---3----3----3---3---5---5--5---|
-0-----------------------0--------0------------------------------------------|
-----------------------------------------------------------------------------|
-----------------------------------------------------------------------------|
^Bend down and hold
(I play the 2nd verse a lil different its something I made up but you can just play the main)
Then do the MAIN and lil intro
Then the heavy part
Chorus
then let it fade ive added some harmonics here then play the intro softly and include
build up then this:

-17^--17--17--17-                  ---------------|
-20^--20--20--20-                  -16^-16-16-16--|
-----------------------            -15^-15-15-15--|
-----------------------I play This>---------------|
-----------------------            ---------------|
-----------------------            ---------------|

Then chours
Then this is the lil outro (....I want what I want)  Listen for timing
-----------------------------------------------------------------------------|
--3----4-----6---------------------------------------------------------------|
--2----3-----5--THEN-( I Play This)------------------------------------------|
-----------------------------------12--12--x--x-12--12x--x-13--13------------|
-----------------------------------12--12--x--x-12--12x--x-13--13------------|
-----------------------------------12--12--x--x-12--12x--x-13--13------------|

--------------------------------------------|
--------------------------------------------|
-OR You ------------------------------------|
can play this------0--0-x--x-1--1-x--x-0--0-|
-------------------0--0-x--x-1--1-x--x-0--0-|
-------------------0--0-x--x-1--1-x--x-0--0-|


thats it I tabbed this out for the ppl of myspace and youtube for the request you can
me play this here:
http://www.youtube.com/watch?v=a1gjV92Pet4
Related for Sober Acoustic tab