Guitaretab - guitar tabs
Song name
# A B C D E F G H I J K L M N O P Q R S T U V W X Y Z

Aaron Lewis - Tangled tab

----------------------------------------------------------------------------
                     aaron lewis tangled up in you
----------------------------------------------------------------------------

drop d tuning  this is 100% correct

verse

e---------------------------------------------------------------------------|
b---------------------------------------------------------------------------|
g---------------------------------------------------------------------------|
d-------2---4----------2---4-----------5---7----------5---7-----------------|
a----0--------------0---------------0--------------0------------------------|
d--0-------------0---------------0--------------0---------------------------|

chorus

e---------------------------------------------------------------------------|
b---------------------------------------------------------------------------|
g---------------------------------------------------------------------------|
d-------11---12--------11---12----------5---7--------5---7------------------|
a----9--------------9----------------0------------0-------------------------|
d--9--------------9---------------0-------------0---------------------------|
[ Tab from: http://www.guitaretab.com/a/aaron-lewis/162971.html ]
verse (x6)
chorus (x3)
verse (x4)
chorus (x5)

end with

e-------------------------0-------------------------------------------------|
b--------------------0------------------------------------------------------|
g----------------0----------------------------------------------------------|
d---------2---4-------------------------------------------------------------|
a-----0---------------------------------------------------------------------|
d--0------------------------------------------------------------------------|

lyrics

(verse 1)
your my world
the shelter from the rain
your the pill
that takes away my pain
your the fire
that warms me when im cold
your the hand
to hold as i grow old

(chorus)
in a world
where nothing else is true
here i am so tangled up in you
so tangled up in you

(verse 2)
your the ship
when i am lost at sea
your the only thing
that i like about me
your the light
that does show me the way
your the end
of my very best day

(chorus)
in this world
where nothing else is true
here i am
so tangled up in you
im so tangled up in you
im so tangled up in you
im so tangled up in you

thats it this is the easiest song i have ever played
if you have any questions email me at donnieroberts32@yahoo.com
Related for Tangled tab
Advertisement will be closed in 10 seconds