Song name
# A B C D E F G H I J K L M N O P Q R S T U V W X Y Z

Aaron Lewis - Tangled Up In You tab

-----------------------------------------------------------------------------
     Tangled Up in You  Aaron Lewis
-----------------------------------------------------------------------------
 
 
Tabbed by: Ryan (rmhillman@yahoo.com)
 
Tuning: CGDBGe - This isn't exactly how Aaron tunes/plays it, but it works for me

Live Version
 
Capo 1st fret


1st Verse 4x
e|--------------------------------------------------------------------------------------------------|
B|--------------------------------------------------------------------------------------------------|
G|--------------------------------------------------------------------------------------------------|
D|---------------0--2-----------------0--2---------------------5--7-----------------5--7------------|
G|------------0--------------------0------------------------5--------------------5------------------|
C|---------0--------------------0------------------------5--------------------5---------------------|
 
You're my  world            the shelter from the rain
You're the pill            that takes away my pain
You're the light           that helps me guide my way
You're the words           when I have nothing to say


Chorus 2x
e|--------------------------------------------------------------------------------------------------|
B|--------------------------------------------------------------------------------------------------|
G|--------------------------------------------------------------------------------------------------|
D|--------------10--11-----------------10--11------------------5--7-----------------5--7------------|
G|-----------10--------------------10-----------------------5--------------------5------------------|
C|--------10--------------------10-----------------------5--------------------5---------------------|

  In this world           where nothing    else is true
  Here I  am              still tangled    up in you                I'm still tangled up in you


e|--------------------------------------------------------------------------------------------------|
B|--------------------------------------------------------------------------------------------------|
G|--------------------------------------------------------------------------------------------------|
D|---------------0--2-----------------0--2---------------------5--7-----------------5--7------------|
G|------------0--------------------0------------------------5--------------------5------------------|
C|---------0--------------------0------------------------5--------------------5---------------------|

                                                                    I'm still tangled up in you


e|--------------------------------------------------------------------------------------------------|
B|--------------------------------------------------------------------------------------------------|
G|--------------------------------------------------------------------------------------------------|
D|---------------0--2-----------------0--2---------------------5--7-----------7---------------------|
G|------------0--------------------0------------------------5-----------------5---------------------|
C|---------0--------------------0------------------------5--------------------5---------------------|


2nd Verse 4x
e|--------------------------------------------------------------------------------------------------|
B|--------------------------------------------------------------------------------------------------|
G|--------------------------------------------------------------------------------------------------|
D|---------------0--2-----------------0--2---------------------5--7-----------------5--7------------|
G|------------0--------------------0------------------------5--------------------5------------------|
C|---------0--------------------0------------------------5--------------------5---------------------|
 
You're the fire            that warms me when I'm cold
You're the hand I have to hold          as I grow old
You're the shore           when I am lost at sea
You're the only thing that   I       like about me


Chorus 2x
e|--------------------------------------------------------------------------------------------------|
B|--------------------------------------------------------------------------------------------------|
G|--------------------------------------------------------------------------------------------------|
D|--------------10--11-----------------10--11------------------5--7-----------------5--7------------|
G|-----------10--------------------10-----------------------5--------------------5------------------|
C|--------10--------------------10-----------------------5--------------------5---------------------|

  In this world           where nothing    else is true
  Here I  am              still tangled    up in you                I'm still tangled up in you


Bridge 2x
e|--------------------------------------------------------------------------------------------------|
B|--------------------------------------------------------------------------------------------------|
G|--------------------------------------------------------------------------------------------------|
D|--------------10--11----------------5--7---------------------0--2-----------------10--11----------|
G|-----------10--------------------5------------------------0--------------------7------------------|
C|--------10--------------------5------------------------0--------------------7---------------------|

                            How long has it been                   since this story line began
                         And I  hope   it  never   ends      and goes like this forever


Chorus 2x
e|--------------------------------------------------------------------------------------------------|
B|--------------------------------------------------------------------------------------------------|
G|--------------------------------------------------------------------------------------------------|
D|--------------10--11-----------------10--11------------------5--7-----------------5--7------------|
G|-----------10--------------------10-----------------------5--------------------5------------------|
C|--------10--------------------10-----------------------5--------------------5---------------------|

  In this world           where nothing    else is true
  Here I  am              still tangled    up in you                I'm still tangled up in you


e|--------------------------------------------------------------------------------------------------|
B|--------------------------------------------------------------------------------------------------|
G|--------------------------------------------------------------------------------------------------|
D|---------------0--2-----------------0--2---------------------5--7-----------------5--7------------|
G|------------0--------------------0------------------------5--------------------5------------------|
C|---------0--------------------0------------------------5--------------------5---------------------|

                                                                    I'm still tangled up in you


e|--------------------------------------------------------------------------------------------------|
B|--------------------------------------------------------------------------------------------------|
G|--------------------------------------------------------------------------------------------------|
D|---------------0--2-----------------0--2---------------------5--7-----------------5--7------------|
G|------------0--------------------0------------------------5--------------------5------------------|
C|---------0--------------------0------------------------5--------------------5---------------------|

                                                                        Still tangled up   in


e|---------------|
B|---------------|
G|---------------|
D|---------2-----|
G|---------0-----|
C|---------0-----|

           you
Tap to rate this tab
 
# A B C D E F G H I J K L M N O P Q R S T U V W X Y Z