Song name
# A B C D E F G H I J K L M N O P Q R S T U V W X Y Z

Aaron Shearer - Etude No 1 tab

Just something i learnt a while ago... Jak Blax

e|-------------------------0-1-0-------------0-1-3-1-----------3-1-0---0--|
A|---0-1-3-1-----------1-3-----------------3-------------------------3----|
D|-2----------------------------------------------------------------------|
G|-----------------------------------------------------0-0-0--------------|
B|-------------0-0-0---------------0-0-0----------------------------------|
E|------------------------------------------------------------------------|


|---------1-0-----------------0----------------------------------------|
|-------------3-1-3-------------3-1-0-1-------1-0-----0-1-3-1----------|
|---------------------------------------------------2------------------|
|----------------------------------------------------------------------|
|-0-0-0-----------------------------------0---------------------0-0-0--|
|---------------------0-0-0--------------------------------------------|


|-----0-1-0-------------0-1-3-1-----------3-1-0---0---------1-0--------|
|-1-3-----------------3-------------------------3---------------3-1-3--|
|----------------------------------------------------------------------|
|---------------------------------0-0-0--------------------------------|
|-------------0-0-0-----------------------------------0-0-0------------|
|----------------------------------------------------------------------|


|---------0-----------------|
|-----------3-1-0-1---------|
|-------------------------2-|
|---------------------------|
|---------------------0-----|
|-0-0-0---------------------|
Tap to rate this tab
# A B C D E F G H I J K L M N O P Q R S T U V W X Y Z