Song name
# A B C D E F G H I J K L M N O P Q R S T U V W X Y Z

Aaron Shust - My Savior My God tab

Help us improve GuitareTab! Take a short survey!
Capo The 2nd Fret


E]----------------------------0-0-0-----0-0-0-------------------|
A]---3/5-5-5-5\3-33-3\1-11----1-1-1-----1-1-1----3/5-5-5-5\3-33-|
D]---0-0-0-0-0-0-00-0-0-00----0-0-0-----0-0-0----0-0-0-0-0-0-00-|
G]----------------------------2-2-2-----2-2-2-------------------|
B]-------------------------3--3-3-3--3--3-3-3--3----------------|
e]--------------------------------------------------------------|


E]-------------0-0-0-----0-0-0-----------------0-0---0-0----3-3-|
A]---3\1-11----1-1-1-----1-1-1-----1---1-1-1---1-1p0-0-0----3-3-|
D]---0-0-00----2-2-2-----2-2-2-----2---2-2-2---2-2p0-0-0----0-0-|
G]-------------2-2-2-----2-2-2-----2h3-3-3-3p2-2-2p0--------0-0-|
B]----------0--0-0-0--0--0-0-0--0--0---0-0-0---0-0p0--------2-2-|
e]-------------------------------------------------------3--3-3-|


E]---3-----3-3-3-----3------------------0-0-0-------------------|
A]---3-----3-3-3-----3--5-5-3-3\1-11----1-1-1-------------------|
D]---0-----0-0-0-----0--0-0-0-0-0-00----0-0-0-------------------|
G]---0-----0-0-0-----0------------------2-2-2-------------------|
B]---2-----2-2-2-----2---------------3--3-3-3--3----------------|
e]---3--3--3-3-3--3--3------------------------------------------|
Related for My Savior My God tab