Song name
# A B C D E F G H I J K L M N O P Q R S T U V W X Y Z

Aaron Shust - Take Over tab

A really fun and easy worship song that dont have much for tabs online


1st part

------------------------------0-----------|
--5---5---12---12---7---7---7-------------|
----0---0----0----0---0---0---------------|
------------------------------------------|
--3-------10--------5---------------------|
------------------------------------------|


2nd part

---------------------------------|
-8---8---5---5---3---3---7---7---|
---0---0---0---0---0---0---0-----|
---------------------------------|
-7-------3-------2-------5-------|
---------------------------------|
Tap to rate this tab
 
# A B C D E F G H I J K L M N O P Q R S T U V W X Y Z