Song name
# A B C D E F G H I J K L M N O P Q R S T U V W X Y Z

Aaron Shust - My Hope Is In You tab

I am GuitarGuy873 and this is my first tab. Chords may not be 100% correct but the tabs
are. Chords sounded alright but if you find a better chord or whatever please tell me
and I'll change it as soon as possible. Also I wasn't sure of the names of 2 chords so I 
named them Em2 and D2, fingerings are listed. Strum pattern isn't hard. But anyway, 
this is
My Hope Is In You, by Aaron Shust. Enjoy.


Intro:

Variation 1
E|--0-2-5-0-2-5-0-2-5-0-2-5-0-2-5-0-2-5-0-2-5-2-0-2--|
b|---------------------------------------------------|
g|-0--0--0--0--------------2--2--2--2--4--4--4--4----|
d|-------------0--0--0--0----------------------------|
a|---------------------------------------------------|
e|---------------------------------------------------|

E|--12-14-17-12-14-17-12-14-17-12-14-17-22-19-17-22-19-17-22-19-17-22-19-17-|
b|--------------------------------------------------------------------------|
g|-0----0---0----0---------------------2----2---2----2---4----4---4----4----|
d|-------------------0----0---0----0----------------------------------------|
a|--------------------------------------------------------------------------|
e|--------------------------------------------------------------------------|

OR

Variation 2
E|--0-2-5-0-2-5-0-2-5-0-2-5-0-2-5-0-2-5-0-2-5-2-0-2--|
b|---------------------------------------------------|
g|-0-----0-----------------2-----2-----4-----4-------|
d|-------------0-----0-------------------------------|
a|---------------------------------------------------|
e|---------------------------------------------------|

E|--12-14-17-12-14-17-12-14-17-12-14-17-22-19-17-22-19-17-22-19-17-22-19-17-|
b|--------------------------------------------------------------------------|
g|-0--------0--------------------------2--------2------4--------4-----------|
d|-------------------0--------0---------------------------------------------|
a|--------------------------------------------------------------------------|
e|--------------------------------------------------------------------------|




Verse 1:
D                      E
I meet with you and my soul sings out
        C                          A
As your word throws doubt far away
D                      E
I sing to you and my heart cries holy
        C                     A
Hallelujah Father you're near



Chorus:
G          D2
My hope is in you Lord
D                E
All the day long
C                    A
I won't be shaken by drought or storm
Em2                               D2
A peace that passes understanding is my song and I sing
G                 D
My hope is in you alone



Verse 2:
D                     E
I wait for you and my soul finds rest
      C                             A
In my selfishness you show me grace
D                     E
I worship you and my heart cries glory
      C                       A
Hallelujah Father you're here



Chorus



Interlude:
G           C
I will wait on you
D          A
You are my refuge
G           C
I will wait on you
D          A
You are my refuge



Chorus 3:
G          D2
My hope is in you Lord
D                E
All the day long
C                    A
I won't be shaken by drought or storm
G          D2
My hope is in you Lord
D                E
All the day long
C                    A
I won't be shaken by drought or storm
Em2                               D2
A peace that passes understanding is my song and I sing
G                 D
My hope is in you alone

Outro:
G          Cadd9
My hope is in you Lord
E          D           G
My hope is in you Lord



D2:

  F1  F2  F3  F4  <--- Fret#
E| - | - | 4 | - |
b| - | - | 3 | - |
g| - | 2 | - | - |
d| - | - | - | - |
a| - | - | - | - |
e| - | 1 | - | - |


Em2:

  F1  F2  F3  F4  <--- Fret#
E| - | - | 4 | - |
b| - | - | 3 | - |
g| - | - | - | - |
d| - | 2 | - | - |
a| - | 1 | - | - |
e| - | - | - | - |
Tap to rate this tab
 
# A B C D E F G H I J K L M N O P Q R S T U V W X Y Z