Song name
# A B C D E F G H I J K L M N O P Q R S T U V W X Y Z

Aaron Shust - My Hope Is In You tab

Constructive criticism, anyone?

Intro:

E|--0-2-5-0-2-5-0-2-5-0-2-5-0-2-5-0-2-5-0-2-5-2-0-2--|
b|-------------------------------------0-----0-------|
g|-0-----0-----------------2-----2-------------------|
d|-------------0-----0-------------------------------|
a|---------------------------------------------------|
e|---------------------------------------------------|

E|-12-14-17-12-14-17-12-14-17-12-14-17-22-19-17-22-19-17-22-19-17-22-19-17-|
b|-------------------------------------------------------------------------|
g|-0--------0--------------------------------------------------------------|
d|-------------------0--------0--------------------------------------------|
a|-------------------------------------------------------------------------|
e|-------------------------------------19-------19-------19-------19-------|
Tap to rate this tab
# A B C D E F G H I J K L M N O P Q R S T U V W X Y Z