Song name
# A B C D E F G H I J K L M N O P Q R S T U V W X Y Z

Aaron Shust - My Savior My God tab

-----------------------------------------------------------------------------
                                        MY SAVIOR MY GOD - Aaron Shust
-----------------------------------------------------------------------------
Tabbed by: AnnoyingXP
E-mail: annoyingXP@hotmail.com

Tuning: Standard  EADGBe

This is the way I like to play this song, and though it might not be tabbed
exactly to the song, it still sounds good when played with the recording.
Hope you like it.

CHORDS USED:
D  - xx0232
Bm - x24432
A  - x02220
G  - 320003
G2 - 320033
Asus4 - x02230
Asus2 - x02200


INTRO:
e|--2-2-2-2p0--0----------------------2-2-2-2p0--0---------------------|
B|--3-3-3-3-----3----3--3----3--3-----3-3-3-3-----3---3--3----3--3-----|
G|-------------------2---2---2---2--------------------0---0---0---0----|
D|-----------------0-------0-------0-----------------------------------|
A|--------------------------------------------------2-------2-------2--|
E|---------------------------------------------------------------------|

e|--3-3-3-3p2--2p0----0--0----0--0----0--2-2-0-0-------------|
B|--3-3-3-3----3------3---3---3---3---3--3-3-3--3---3--3-----|
G|--------------------2-------2-------2-------------2---2----|
D|------------------------------------------------0-------0--|
A|------------------0-------0-------0------------------------|
E|-----------------------------------------------------------|


VERSE 1:                                                             
e|-------------------------------------------------------------|
B|-----------------------------3--3----3--3----3--3-----3--3---|
G|-----------------------------2---2---2---2---2---2----2---0--|
D|---------------------------0-------0-------0--------0--------|
A|-------------------------------------------------------------|
E|-------------------------------------------------------------|
  I am not skilled to understand             what God has willed what God has

e|----------------------------------|
B|---3--3----3--3----3--3----3--3---|
G|---0---0---0---0---0---0---0---0--|
D|----------------------------------|
A|-2-------2-------2-------2--------|
E|----------------------------------|
  planned            I only know at His right

e|---0--0----0--0----0--0----0--0---|
B|---3---3---3---3---3---3---3---3--|
G|---2-------2-------2-------2------|
D|----------------------------------|
A|-0-------0-------0-------0--------|
E|----------------------------------|
  hand                 stands One who is my

e|--------------------|
B|---3--3----3--3-----|
G|---2---2---2---2----|
D|-0-------0-------0--|
A|--------------------|
E|--------------------|
  Savior


VERSE 2:
                           D
I take him at his word and deed
                              Bm
Christ died to save me this I read
                           A
And in my heart I find the need
                D
Of him to be my Savior


PRE-CHORUS:
                                 G
That he would leave his place on high
                           D
And come for sinful man to die
                                  Asus4  Asus2 (hammer-on to A on B string) A
You called it strange so once did I
                 D
Before I knew my Savior


CHORUS: (X2)
          Bm
My Savior loves
          G2
My Savior lives
            D               A
My Savior's always there for me
          Bm
My God he was
          G2
My God he is
            D           A
My God he's always gonna be


VERSE 3:
                         D
Yes living, dying let me bring
                               Bm
My strength my Solace from the Spring
                           A
That he who lives to be my king
                   D
Once died to be my Savior


PRE-CHORUS

CHORUS (X2)

INTRO + SOLO


FINAL CHORUS: (The entire thing X2)
          Bm
My Savior loves
          G2
My Savior lives
            D               A
My Savior's always there for me
          Bm
My God he was
          G2
My God he is
            D           A
My God he's always gonna be

          Bm*
My Savior loves
          
My Savior lives
            A*              
My Savior's always there for me
          G2*
My God he was
          
My God he is
                         A (strum once and pause)
My God he's always gonna be

*strum down throughout*


OUTRO:
          G
My Savior lives
          G
My Savior loves
          G
My Savior lives
          G
My Savior loves
          G (strum once and let it ring)
My Savior lives


************************************

| /   slide up
| \   slide down
| h   hammer-on
| p   pull-off
| ~   vibrato
| +   harmonic
| x   Mute note
| b   Bend
| pb  Pre-bend
| br  Bend release
| pbr Pre-bend release
| brb Bend release bend

************************************
Tap to rate this tab
 
# A B C D E F G H I J K L M N O P Q R S T U V W X Y Z