Aaron - Song For Ever tab

Bonjour,

Voici la tablature pour la chanson "Song for Ever" issue de l'album "Birds in the Storm" d'AaRON.
Pour vous faciliter la tache lorsque vous jouerez, je vous conseille l'accordage suivant : DADGBE.

D|--9---9------9-9---9------9-8---8------8-8---8------8-7---7-----7-|
A|----9------9-----9------9-----9------9-----9------9-----7-----7---|
D|--------11-----------11(b)--------11-----------11-----------9-----|
G|------------------------------------------------------------------|
B|------------------------------------------------------------------|
E|------------------------------------------------------------------|


D|-7---7-----7-6---6-----6-6---6-----6--|
A|---7-----7-----7-----7-----7-----7----|
D|-------9-----------9-----------9------|
G|--------------------------------------|
B|--------------------------------------|
E|--------------------------------------|

Ensuite, pour le refrain, rien de plus simple si vous avez réussi les couplets :

D|--5---5------5-5---5-----5-7---7-----7-7---7-----7-|
A|----5------5-----5-----5-----7-----7-----7-----7---|
D|--------7------------7-----------9-----------9-----|
G|---------------------------------------------------|
B|---------------------------------------------------|
E|---------------------------------------------------|

D|--5---5------5-5---5-----5-7---7-----7-------------|
A|----5------5-----5-----5-----7-----7---------------|
D|--------7------------7-----------9-----9-----------|
G|---------------------------------------------------|
B|---------------------------------------------------|
E|---------------------------------------------------|

Voila.

( Une erreur dans la tablature ? Contactez-moi )
Tap to rate this tab
 
# A B C D E F G H I J K L M N O P Q R S T U V W X Y Z